» » »

I Want To Hear You Sad Bass tabs (ver.1)

Artists:  A B C D E F G H I J K L M N O P Q R S T U V W X Y Z # 

I Want To Hear You Sad Bass tabs (ver.1)

Early November
Rating:
0/5 (0 votes)

Hard to play? Try these video lessons and learn fast.
                Ok here's kind of a tricky one. If you play this with a band or with the cd, the lead 
is your best friend. Just try and follow him or her. Whenever he or she changes 
is when you do too. The tab looks like a tricky bass line that goes off by itself,but it isnt.

tuning: Db,Ab,Db,Gb

verse
------------------------9999999-------------------------------|
----------7--7--7--7----7777777(chord)-5--5--5--5--5--5--5--5-|
---------0--0--0--0-9-7-0000000-------------------------------|
-12/2---------------------------------5--5--5--5--5--5--5--5--|

chorus
-000000000000000000-5555555555555555555555-777777777777777777-5555555555555-|

bridge
-------------------------------------------|
-------------------------------------------|
-------------------------------------------|
-12/4-44444444-55555555-44444444-555555555-|

end
--------------|
---7--7--7--7-|
-0--0--0--0---|
--------------|

Or, if you want to be cool and end the same as the guitar just play this:

end w/guitar

------------9-|
---7--7--7----|
-0--0--0--0---|
--------------|

Ok,thats it. Just keep at it and youll get it, fun song,and remember if you dont want to 
have trouble playing the exact bass line just play the root notes:

rather than the verse thats up top just play this:

-------------------------------------|
-------------------------------------|
-00000000-00000000-------------------|
-------------------55555555-55555555-|
whatever is easier or whatever suites you
ok well thats it have fun!
            
Hard to play? Try these video lessons and learn fast. | Correct




comments powered by Disqus
↑ Back to top | Tablatures and chords are parodies/interpretations of the original songs. You may use it for private study, scholarship, research or language learning purposes only