» » »

Eagles Of Death Metal, So Easy Tabs (ver.2)

Artists:  A B C D E F G H I J K L M N O P Q R S T U V W X Y Z # 

So Easy Tabs (ver.2)

Eagles Of Death Metal Tabs
Rating:
0/5 (0 votes)
So Easy lessons Tabs too difficult? Try these video lessons and learn fast
                -------------------------------------------------------------------------------
                       So Easy - Eagles of Death Metal
-------------------------------------------------------------------------------





Tuning: EODM's normal tuning (GGDGBd) with a capo on the 1st fret.


Verses

d|---------------------------------------------------------------------------|
B|---------------------------------------------------------------------------|
G|----0-0-0-0-0-0---7-7---7----7-----3-3---3---3---3---3-----7-7-7-----------|
D|----0-0-0-0-0-0---7-7-9-7-10-7-9---3-3-5-3-6-3-5-3-6-3-5---7-7-7-10-9------|
G|----0-0-0-0-0-0---7-7-7-7-7--7-7---3-3-3-3-3-3-3-3-3-3-3---7-7-7-7--7------|
G|----0-0-3p0-0-0---7-7-7-7-7--7-7---3-3-3-3-3-3-3-3-3-3-3---7-7-7-7--7------|

and repeat until...

Chorus

d|---------------------------------------------------------------------------|
B|---------------------------------------------------------------------------|
G|----0--0-0--0-0-0---1--1-1--1-1-1---10--10-10--10-10-10---7--7-7--7-7-7----|
D|----0--0-0--0-0-0---1--1-1--1-1-1---10--10-10--10-10-10---7--7-7--7-7-7----|
G|----0--0-0--0-0-0---1--1-1--1-1-1---10--10-10--10-10-10---7--7-7--7-7-7----|
G|----0--0-0--0-0-0---1--1-1--1-1-1---10--10-10--10-10-10---7--7-7--7-7-7----|

Chorus with the little trademark variation

d|---------------------------------------------------------------------------|
B|---------------------------------------------------------------------------|
G|---0----0----0-0---1----1----1-1---10-----10-----10-10---7---7----7---7-7--|
D|---0--2-0--3-0-0---1--3-1--4-1-1---10--12-10--13-10-10---7-9-7-10-7-9-7-7--|
G|---0--0-0--0-0-0---1--1-1--1-1-1---10--10-10--10-10-10---7-7-7-7--7-7-7-7--|
G|---0--0-0--0-0-0---1--1-1--1-1-1---10--10-10--10-10-10---7-7-7-7--7-7-7-7--|

That's just about it for this one. I'll be doing some more EODM soon.


************************************

| /   slide up
| \   slide down
| h   hammer-on
| p   pull-off
| ~   vibrato
| +   harmonic
| x   Mute note
| b   Bend
| pb  Pre-bend
| br  Bend release
| pbr Pre-bend release
| brb Bend release bend

************************************
            
Submit corrections

comments powered by Disqus
↑ Back to top | Eagles Of Death Metal Tabs for So Easy. Lyrics for acoustic guitar and electric guitar. Tablatures and chords are parodies/interpretations of the original songs. You may use it for private study, scholarship, research or language learning purposes only