» » »

Eagles Of Death Metal, So Easy Tabs (ver.1)

Artists:  A B C D E F G H I J K L M N O P Q R S T U V W X Y Z # 

So Easy Tabs (ver.1)

Eagles Of Death Metal Tabs
 Rating:
4/5 (7 votes)
So Easy lessons Tabs too difficult? Try these video lessons and learn fast
                Band - Eagles of Death Metal 
Song - So Easy

Intro:
|--------------------------------------------------------------------------|   
|--------------------------------------------------------------------------|
|--------------------------------------------------------------------------|
|-----------------8-8-10-8-10-8-x-------------------------------x--8-8-8---| x2
|---6-6-8-6-8-6-x-6-6-6--6-6--6-x-9-9-10-9-11-9-10-9-11-9-10-9--x--6-6-6---|
|---4-4-4-4-4-4-x-----------------7-7--7-7-7--7--7-7-7--7--7-7-------------|

Verse:
|--------------------------------------------------------------------------|   
|--------------------------------------------------------------------------|
|--------------------------------------------------------------------------|
|-----------------8-8-10-8-10-8-x-------------------------------x--8-8-8---| x2
|---6-6-8-6-8-6-x-6-6-6--6-6--6-x-9-9-10-9-11-9-10-9-11-9-10-9--x--6-6-6---|
|---4-4-4-4-4-4-x-----------------7-7--7-7-7--7--7-7-7--7--7-7-------------|


Chorus:
|------------------------------------------------------------------------|
|------------------------------------------------------------------------| 
|------------------------------------------------------------------------|
|----------------------------------x-11-11-13-11-14-11-x-8-8-8-8-8-8-8---| x2
|---6-6-8-6-9-6-x-6/7-7-9-7-10-7---x--9--9--9- 9--9--9-x-6-6-6-6-6-6-6---|
|---4-4-4-4-4-4-x-4/5-5-5-5--5-5-----------------------------------------|

Interlude:
|------------------------------------------------------------------------------|
|------------------------------------------------------------------------------| 
|---------------------------------------------11-11-11--8b9-\------------------|
|---8-8-8-8-8-8-8-8-8-x-8-8-10-8-11-8-10--8------------------------------------|
|---6-6-6-6-6-6-6-6-6-x-6-6--6-6-6--6--6--6------------------------------------|
|------------------------------------------------------------------------------|


|-------------------------------------------------------------------------------------------|   
|-------------------------------------------------------------------------------------------|
|-------------------------------------------------------------------------------------------|
|-----------------8-8-10-8-10-8-x-------------------------------x--8-8-8--------------------|
|---6-6-8-6-8-6-x-6-6-6--6-6--6-x-9-9-10-9-11-9-10-9-11-9-10-9--x--6-6-6--------------------|
|---4-4-4-4-4-4-x-----------------7-7--7-7-7--7--7-7-7--7--7-7------------------------------|\
                                                                                              | x2
|-------------------------------------------------------------------------------------------|/
|--------------------------------6----7p6---------------------------------------------------| 
|----------4----4b5--------6/8-8---8-------8---------6---6b7-------7-6-------(6)b7r6--------|
|---4/6-6----6--------6------------------------6/9-9---9-------9-6-------9-6-------------6--|
|-------------------------------------------------------------------------------------------|
|-------------------------------------------------------------------------------------------|

Verse:
|--------------------------------------------------------------------------|   
|--------------------------------------------------------------------------|
|--------------------------------------------------------------------------|
|-----------------8-8-10-8-10-8-x-------------------------------x--8-8-8---| x2
|---6-6-8-6-8-6-x-6-6-6--6-6--6-x-9-9-10-9-11-9-10-9-11-9-10-9--x--6-6-6---|
|---4-4-4-4-4-4-x-----------------7-7--7-7-7--7--7-7-7--7--7-7-------------|

Chorus:
|------------------------------------------------------------------------|
|------------------------------------------------------------------------| 
|------------------------------------------------------------------------|
|----------------------------------x-11-11-13-11-14-11-x-8-8-8-8-8-8-8---| x2
|---6-6-8-6-9-6-x-6/7-7-9-7-10-7---x--9--9--9- 9--9--9-x-6-6-6-6-6-6-6---|
|---4-4-4-4-4-4-x-4/5-5-5-5--5-5-----------------------------------------|

Interlude:
|------------------------------------------------------------------------------|
|------------------------------------------------------------------------------| 
|---------------------------------------------11-11-11--8b9-\------------------|
|---8-8-8-8-8-8-8-8-8-x-8-8-10-8-11-8-10--8------------------------------------|
|---6-6-6-6-6-6-6-6-6-x-6-6--6-6-6--6--6--6------------------------------------|
|------------------------------------------------------------------------------|

Interlude:
|--------------------------------------------------------------------------|   
|--------------------------------------------------------------------------|
|--------------------------------------------------------------------------|
|-----------------8-8-10-8-10-8-x-------------------------------x--8-8-8---| x4
|---6-6-8-6-8-6-x-6-6-6--6-6--6-x-9-9-10-9-11-9-10-9-11-9-10-9--x--6-6-6---|
|---4-4-4-4-4-4-x-----------------7-7--7-7-7--7--7-7-7--7--7-7-------------|

Chorus:
|------------------------------------------------------------------------|
|------------------------------------------------------------------------| 
|------------------------------------------------------------------------|
|----------------------------------x-11-11-13-11-14-11-x-8-8-8-8-8-8-8---| x2
|---6-6-8-6-9-6-x-6/7-7-9-7-10-7---x--9--9--9- 9--9--9-x-6-6-6-6-6-6-6---|
|---4-4-4-4-4-4-x-4/5-5-5-5--5-5-----------------------------------------|

Interlude:
|------------------------------------------------------------------------------|
|------------------------------------------------------------------------------| 
|---------------------------------------------11-11-11--8b9-\------------------|
|---8-8-8-8-8-8-8-8-8-x-8-8-10-8-11-8-10--8------------------------------------|
|---6-6-6-6-6-6-6-6-6-x-6-6--6-6-6--6--6--6------------------------------------|
|------------------------------------------------------------------------------|

Outro:
|--------------------------------------------------------------------------|   
|--------------------------------------------------------------------------|
|--------------------------------------------------------------------------|
|-----------------8-8-10-8-10-8-x-------------------------------x--8-8-8---| x2
|---6-6-8-6-8-6-x-6-6-6--6-6--6-x-9-9-10-9-11-9-10-9-11-9-10-9--x--6-6-6---|
|---4-4-4-4-4-4-x-----------------7-7--7-7-7--7--7-7-7--7--7-7-------------|

End.
            
Submit corrections

comments powered by Disqus
↑ Back to top | Eagles Of Death Metal Tabs for So Easy. Lyrics for acoustic guitar and electric guitar. Tablatures and chords are parodies/interpretations of the original songs. You may use it for private study, scholarship, research or language learning purposes only