>
 >
Cherry Cola 1

Cherry Cola 1 Guitar Tabs

Eagles Of Death Metal - Cherry Cola 1 chords, tabs, tablatures, lyrics

Guitar lessons | Add/correct | Request | Top 50 tabs Artists:  A B C D E F G H I J K L M N O P Q R S T U V W X Y Z 0-9

Cherry Cola 1 Guitar Tabs – Eagles Of Death Metal

CD, Sheet music, Poster

Do you like Cherry Cola 1? Share with your friends now
Bass TabsBass Tabs v2Bass Tabs v3TabsTabs v2
Band: Eagles of Death Metal


*Solo Taken From "Kal Zakath" ALL Credit for the SOLO goes to him

I made this Version Because the tuning for the other one I saw was too much of a hassel 
its annoying

This tuning (Low to High) is E-A-D-G-B-D



Intro / Chorus

D|---------------------------------------------|
B|----8--------5--5------6---6------7----7-----|
G|----8--------5--5------6---6------7----7-----|
D|----8--------5--5------6---6------7----7-----|   x4 I Think
A|----6--------3--3------4---4------5----5-----|
E|---------------------------------------------|

Verse

If you listen closely I think he plays Eighth notes on the notes that sound like they
"held". Either way sounds good.


D|--------------------------------------------------------------|
B|----8--------3-3---5---5---------8------------3-3---5---5-----|
G|----8--------3-3---5---5---------8------------3-3---5---5-----|
D|----8--------3-3---5---5---------8------------3-3---5---5-----|
A|----6--------1-1---3---3---------6------------1-1---3---3-----|
E|--------------------------------------------------------------|

Chorus x4

*Solo, (1 guitar plays verse)

D|-10/13----13^--13---13p10h13p10h13p10--13---10/13--13/10-----------------|
B|-------14---------------------------------------------------7------------|
G|-------------------------------------------------------------------------|
D|-------------------------------------------------------------------------|
A|-------------------------------------------------------------------------|
E|-------------------------------------------------------------------------|

D|-8/10--10p8---8----10/13---11--13--11-11---13/20----13---10p8h10p8h10p8/5|--|
B|----------------------------------------------------------------------------|
G|----------------------------------------------------------------------------|
D|----------------------------------------------------------------------------|
A|----------------------------------------------------------------------------|
E|----------------------------------------------------------------------------|

I dont think the solo is %100 correct but its close. Just kind of of improvise and play around.


Verse 2     *The notes in Parenthesis() are not there but if you do put them there it
sound just fine

D|-------8--------8-------------------*(5)-----(5)------------------------|
B|----8----8--------8----8---3-3--5-5----(5)----(5)-(5)---8-----3-3--5-5--|
G|----8-------8--------8-----3-3--5-5------(5)----(5)-----8-----3-3--5-5--|
D|----8----------------------3-3--5-5---------------------8-----3-3--5-5--|
A|----6----------------------1-1--5-3---------------------6-----1-1--3-3--|
E|------------------------------------------------------------------------|

-Chorus x4

Bridge

D|-----------------------------------|------------------------------------|
B|-----------------------------------|------------------------------------|
G|--12----10--10----7--7------5--5---|--12----10--10----7--7------5/7\5---|
D|--12----10--10----7--7------5--5---|--12----10--10----7--7------5/7\5---|
A|--10----8----8----5--5------3--3---|--10----8----8----5--5------3/5\3---|
E|-----------------------------------|------------------------------------|


D|---------------------------------|-------------------------------------|
B|---------------------------------|-------------------------------------|
G|---8----7--7---------------5--5--|--12----10--10----7--7------5/7\5----|
D|---8----7--7-----5--5------5--5--|--12----10--10----7--7------5/7\5----|
A|---6----5--5-----5--5------3--3--|--10----8---8-----5--5------3/5\3----|
E|-----------------3--3------------|-------------------------------------|


Chorus

Then do the Verse 2 Riff

Then this-

D|---------------------------------------------------------------------------|
B|---------------------------------------------------------------------------|
G|----7--7--8-----8-------3--3---5------5------------------------------------|
D|----7--7--8-----8-------3--3---5------5------------------------------------|
A|----5--5--6-----6-------1--1---3------3------------------------------------|
E|---------------------------------------------------------------------------|

Outro Lead Guitar

D|-3/5--3-----4^---3/5--3--------|-3/5--3-----4^-----3/5---3-----10----|
B|---------4---------------4-----|---------4------------------4--------|
G|----------------------------5^-|-------------------------------------|
D|-------------------------------|-------------------------------------|
A|-------------------------------|-------------------------------------|
E|-------------------------------|-------------------------------------|


D|-3/5--3-----4^---3/5--3--------|-3/5--3------------3/5---3-----10----|
B|---------4---------------4-----|---------4------------------4--------|
G|----------------------------5^-|------------5^-----------------------|
D|-------------------------------|-------------------------------------|
A|-------------------------------|-------------------------------------|
E|-------------------------------|-------------------------------------|





Comments


Popular Eagles Of Death Metal tabs & chords
Flames Go Higher Chords
Miss Alissa Chords
Already Died Tabs
Bad Dream Mama Intro 1 Tabs
Dont Speak 1 Tabs
Flames Go Higher Tabs
Kiss The Devil Tabs
Secret Plans Tabs
Miss Alissa Ukulele
San Berdoo Sunburn Ukulele


Song lyrics



↑ Back to top | Tablatures and chords are parodies/interpretations of the original songs. You may use it for private study, scholarship, research or language learning purposes only
© 2014 AZChords.com Contact us | Privacy policy | DMCA | Add/correct tabs | Request tabs | Top 50 tabs