» » »

Eagles Of Death Metal, Cherry Cola Bass tabs (ver.2)

Artists:  A B C D E F G H I J K L M N O P Q R S T U V W X Y Z # 

Cherry Cola Bass tabs (ver.2)

Eagles Of Death Metal Tabs
 Rating:
4/5 (4 votes)
Cherry Cola lessons Tabs too difficult? Try these video lessons and learn fast
                Eagles of Death Metal- Cherry Cola

INTRO

G----------------|
D----------------|
A-7-44-55-66-----| x3
E-----------/12\-|

G----------------|
D----------------|
A-7-44-55-66-77~-|
E----------------|

VERSE

G--------------|
D--------------|
A---14-16-16-14|
E-16-----------|

G------------------------------------------------------|
D-141414--1414---1414--14-14---------------------------|
A-------14-----14----14------1414/16-16~----141614-----|
E---------------------------------------1416------1614-|

G----------------------13-13---------------------------|
D-141414--1414---1414----------------------------------|
A-------14-----14----14------1414/16-16-----141614-----|
E---------------------------------------1416------1614-|

G------------------------------------------------------|
D-14141414141414141414141414---------------------------|
A----------------------------1414/16-16-----141614-----|
E---------------------------------------1416------1614-|

G----------------------13-13---------------------------|
D-141414--1414---1414----------------------------------|
A-------14-----14----14------1414/16-16-----141614-----|
E---------------------------------------1416------1614-|

CHORUS

G----------------|
D----------------|
A-7-44-55-66-----| x3
E-----------/12\-|

G----------------|
D----------------|
A-7-44-55-66-77~-|
E----------------|

SOLO

G--------------|
D--------------|
A---14-16-16-14|
E-16-----------|

G------------------------------------------------------|
D-141414--1414---1414--14-14---------------------------|
A-------14-----14----14------1414/16-16~----141614-----|
E---------------------------------------1416------1614-|

G------------------------------------------------------|
D-141414--1414---1414--14-14---------------------------|
A-------14-----14----14------1414/16-16~----141614-----|
E---------------------------------------1416------1614-|

VERSE

G------------------------------------------------------|
D-141414--1414---1414--14-14---------------------------|
A-------14-----14----14------1414/16-16~----141614-----|
E---------------------------------------1416------1614-|

G----------------------13-13---------------------------|
D-141414--1414---1414----------------------------------|
A-------14-----14----14------1414/16-16-----141614-----|
E---------------------------------------1416------1614-|

G------------------------------------------------------|
D-14141414141414141414141414---------------------------|
A----------------------------1414/16-16-----141614-----|
E---------------------------------------1416------1614-|

G----------------------13-13---------------------------|
D-141414--1414---1414----------------------------------|
A-------14-----14----14------1414/16-16-----141614-----|
E---------------------------------------1416------1614-|

CHORUS

G----------------|
D----------------|
A-7-44-55-66-----| x3
E-----------/12\-|

G----------------|
D----------------|
A-7-44-55-66-77~-|
E----------------|

BRIDGE

G------------------------------------------------|
D------------------------------------------------|
A-/19-1818-18181818161616/19-1818-18181818161616-|
E------------------------------------------------|

G------------------------------------------------------|
D-19-1818-181819-18h19p18161616------------------------|
A------------------------------/19-1818-18181818161616-|
E------------------------------------------------------|

CHORUS

G----------------|
D----------------|
A-7-44-55-66-----| x2
E-----------/12\-|

G----------------|
D-9-66-77-88-----|
A-7-44-55-66-----|
E-----------/12\-|

G----------------|
D----------------|
A-7-44-55-66-77~-|
E----------------|

VERSE

G--------------|
D--------------|
A---14-16-16-14|
E-16-----------|

G------------------------------------------------------|
D-141414--1414---1414--14-14---------------------------|
A-------14-----14----14------1414/16-16~----141614-----|
E---------------------------------------1416------1614-|

G----------------------13-13---------------------------|
D-141414--1414---1414----------------------------------|
A-------14-----14----14------1414/16-16-----141614-----|
E---------------------------------------1416------1614-|

G------------------------------------------------------|
D-14141414141414141414141414---------------------------|
A----------------------------1414/16-16-----141614-----|
E---------------------------------------1416------1614-|

G----------------------13-13------------|
D-141414--1414---1414-------------------|
A-------14-----14----14------1414/16-16-|
E---------------------------------------|

OUTRO

G------|
D-REST-|
A------|
E------|

G---------|
D---------|
A-2h4-444-|
E---------|

G------------------|
D------------------|
A-05h7-77702h4-444-| x4
E------------------|

It's not 100% because I did not change my fills. I always improv them. So make them yourself.
            
Submit corrections

comments powered by Disqus
↑ Back to top | Eagles Of Death Metal Bass for Cherry Cola. Lyrics for acoustic guitar and electric guitar. Tablatures and chords are parodies/interpretations of the original songs. You may use it for private study, scholarship, research or language learning purposes only