» » »

Dope, Burn Tabs (ver.3)

Artists:  A B C D E F G H I J K L M N O P Q R S T U V W X Y Z # 

Burn Tabs (ver.3)

Dope Tabs
 Rating:
4.5/5 (8 votes)
Burn lessons Tabs too difficult? Try these video lessons and learn fast
1
                Group: Dope
Tuning: Drop D down 3 half-steps (B F# B E G# C#)

*note: this is only the rhythm guitar (played by edsel in concert), ill post a power tab 
virus' part/solos once i figure it out...

Intro
C#|-----------------|---------------------------------|
G#|-----------------|---------------------------------|
E |-----------------|-7-------7-------7---------------|
B |-0-0-2-0-3-0-5-6-|-7-6-3-0-7-6-3-0-7-6-3-0-3-0-5-6-|
F#|-0-0-2-0-3-0-5-6-|-5-6-3-0-5-6-3-0-5-6-3-0-3-0-5-6-|
B |-0-0-2-0-3-0-5-6-|---6-3-0---6-3-0---6-3-0-3-0-5-6-|
PM                      - - -   - - -   - - -

Verse
C#|---------------------------------------------------|
G#|---------------------------------------------------|
E |-------------------------------------------------5-|
B |----------3--------3-0-5-6----------3------------5-|
F#|----------3--------3-0-5-6----------3--5---------3-|
B |-00000000-3-000000-3-0-5-6-00000000-3----6-3-0-0---|
PM  --------   ------         --------      - - - -

Pre-Chorus
C#|------------------------------------|
G#|------------------------------------|
E |---------------------5--------------|
B |-6-5--6-5--6-7-6-3-0-5--6-5--6-5--5-|
F#|-6-5--6-5--6-5-6-3-0-3--6-5--6-5--5-|
B |-6-5--6-5--6---6-3-0----6-5--6-5--5-|
PM                - - -

Chorus
C#|-----------------|-------------------------------|
G#|-----------------|-------------------------------|
E |-----------------|-7-------7-------7-----------5-|
B |-0-0-2-0-3-0-5-6-|-7-6-3-0-7-6-3-0-7-6-3-0-3-0-5-|
F#|-0-0-2-0-3-0-5-6-|-5-6-3-0-5-6-3-0-5-6-3-0-3-0-3-|
B |-0-0-2-0-3-0-5-6-|---6-3-0---6-3-0---6-3-0-3-0---|
PM                      - - -   - - -   - - -

Fill 1
C#|---------------|
G#|---------------|
E |-7-----------5-|
B |-7-6-3-0-0-0-5-|
F#|-5-6-3-0-0-0-3-|
B |---6-3-0-0-0---|
PM    - - - - -

Bridge
C#|----------------------------------|
G#|----------------------------------|
E |------------------------------5---|
B |-0--3--0--6--0-3--0--3--0--6--5-1-|
F#|-0--3--0--6--0-3--0--3--0--6--3-1-|
B |-0--3--0--6--0-3--0--3--0--6----1-|

Middle
C#|-----------------------------|
G#|-----------------------------|
E |-7-------7-------7-----------|
B |-7-6-3-0-7-6-3-0-7-6-3-0-3-0-|
F#|-5-6-3-0-5-6-3-0-5-6-3-0-3-0-|
B |---6-3-0---6-3-0---6-3-0-3-0-|
PM    - - -   - - -   - - - - -

Outro
C#|---------------------------------------------------------------|
G#|---------------------------------------------------------------|
E |-7-------7-------7---------------7-------7-------7-----------5-|
B |-7-6-3-0-7-6-3-0-7-6-3-0-3-0-5-6-7-6-3-0-7-6-3-0-7-6-3-0-3-0-5-|
F#|-5-6-3-0-5-6-3-0-5-6-3-0-3-0-5-6-5-6-3-0-5-6-3-0-5-6-3-0-3-0-3-|
B |---6-3-0---6-3-0---6-3-0-3-0-5-6---6-3-0---6-3-0---6-3-0-3-0---|
PM    - - -   - - -   - - -           - - -   - - -   - - - - -

Song Structure:
Siren/Drums
Intro
Verse
Pre-Chorus
Chorus
Fill 1
Verse
Pre-Chorus
Chorus
Bridge
Middle
Bridge
Pre-Chorus
Chorus
Outro
Siren
            
Submit corrections

comments powered by Disqus
↑ Back to top | Dope Tabs for Burn. Lyrics for acoustic guitar and electric guitar. 1 Tablatures and chords are parodies/interpretations of the original songs. You may use it for private study, scholarship, research or language learning purposes only