» » »

Burn Bass tabs (ver.1)

Artists:  A B C D E F G H I J K L M N O P Q R S T U V W X Y Z # 

Burn Bass tabs (ver.1)

Dope
Rating:
0/5 (0 votes)

Hard to play? Try these video lessons and learn fast.
                Hithis is Dr.Sketchy this is my second tab. I'm sure its 100%. PLease don't copy and 

Song-Burn
Artist-Dope
Album-Group Theorpy
Tuning-(C#,G#,C#,F#)
Bassist-Sloane Jentry

Intro
F#|---------------------------------------------------------------------|
C#|---------------------------------------------------------------------|
G#|------------------------------------5-------5-------5----------------|
C#|--0-0-2-0-3-0-5-6--0-0-2-0-3-0-5-6----6-3-0---6-3-0---6-3-0-3-0-5-6--|

F#|---------------------------------------------------------------------|
C#|---------------------------------------------------------------------|
G#|------------------------------------5-------5-------5----------------|
C#|--0-0-2-0-3-0-5-6--0-0-2-0-3-0-5-6----6-3-0---6-3-0---6-3-0-3-0-5-6--|

Verse
F#|---------------------------------------------------|
C#|---------------------------------------------------|
G#|--------------------------------------5---------3--|
C#|--00000000-3-0000-3-0-5-6-00000000-3----6-3-0-0----|

F#|---------------------------------------------------|
C#|---------------------------------------------------|
G#|--------------------------------------5---------3--|
C#|--00000000-3-0000-3-0-5-6-00000000-3----6-3-0-0----|

F#|---------------------------------------------------|
C#|---------------------------------------------------|
G#|--------------------------------------5---------3--|
C#|--00000000-3-0000-3-0-5-6-00000000-3----6-3-0-0----|

Pre-Chorus
F#|--------------------------------------|
C#|--------------------------------------|
G#|--------------5-----------------------|
C#|--6-5--6-5--6---6-3-0-6--6-5--6-5--5--|

Chorus
F#|---------------------------------------------------------------------|
C#|---------------------------------------------------------------------|
G#|------------------------------------5-------6-------5-------------3--|
C#|--0-0-2-0-3-0-5-6--0-0-2-0-3-0-5-6--------------------6-3-0-3-0-0----|

F#|---------------------------------------------------------------------|
C#|---------------------------------------------------------------------|
G#|------------------------------------5-------6-------5-------------3--|
C#|--0-0-2-0-3-0-5-6--0-0-2-0-3-0-5-6--------------------6-3-0-3-0-0----|

Verse
F#|---------------------------------------------------|
C#|---------------------------------------------------|
G#|--------------------------------------5---------3--|
C#|--00000000-3-0000-3-0-5-6-00000000-3----6-3-0-0----|

F#|---------------------------------------------------|
C#|---------------------------------------------------|
G#|--------------------------------------5---------3--|
C#|--00000000-3-0000-3-0-5-6-00000000-3----6-3-0-0----|

F#|---------------------------------------------------|
C#|---------------------------------------------------|
G#|--------------------------------------5---------3--|
C#|--00000000-3-0000-3-0-5-6-00000000-3----6-3-0-0----|

Pre-Chorus
F#|--------------------------------------|
C#|--------------------------------------|
G#|--------------5-----------------------|
C#|--6-5--6-5--6---6-3-0-6--6-5--6-5--5--|

Chorus
F#|---------------------------------------------------------------------|
C#|---------------------------------------------------------------------|
G#|------------------------------------5-------6-------5-------------3--|
C#|--0-0-2-0-3-0-5-6--0-0-2-0-3-0-5-6--------------------6-3-0-3-0-0----|

F#|---------------------------------------------------------------------|
C#|---------------------------------------------------------------------|
G#|------------------------------------5-------6-------5-------------3--|
C#|--0-0-2-0-3-0-5-6--0-0-2-0-3-0-5-6--------------------6-3-0-3-0-0----|

Interlude
F#|---------------------------------------------------------------------|
C#|---------------------------------------------------------------------|
G#|---------------------------------------------------------------------|
C#|--0--3--0--3-5-3---0--3--0--3-6-3---0--3--0--3-5-3---0--3--0--3-6-3--|

F#|---------------------------------------------------------------------|
C#|---------------------------------------------------------------------|
G#|---------------------------------------------------------------------|
C#|--0--3--0--3-5-3---0--3--0--3-6-3---0--3--0--3-5-3---0--3--0--3-6-3--|

F#|-------------------------------------------------------------|
C#|-------------------------------------------------------------|
G#|--5-------5-------5-------------5-------5-------5------------|
C#|----6-3-0---6-3-0---6-3-0-3-0-----6-3-0---6-3-0---6-3-0-3-0--|

F#|-------------------------------------------------------------|
C#|-------------------------------------------------------------|
G#|--5-------5-------5-------------5-------5-------5------------|
C#|----6-3-0---6-3-0---6-3-0-3-0-----6-3-0---6-3-0---6-3-0-3-0--|

F#|---------------------------------------------------------------------|
C#|---------------------------------------------------------------------|
G#|---------------------------------------------------------------------|
C#|--0--3--0--3-5-3---0--3--0--3-6-3---0--3--0--3-5-3---0--3--0--3-6-3--|

F#|---------------------------------------------------------------------|
C#|---------------------------------------------------------------------|
G#|---------------------------------------------------------------------|
C#|--0--3--0--3-5-3---0--3--0--3-6-3---0--3--0--3-5-3---0--3--0--3-6-3--|

F#|---------------------------------------------------------------------|
C#|---------------------------------------------------------------------|
G#|---------------------------------------------------------------------|
C#|--0--3--0--3-5-3---0--3--0--3-6-3---0--3--0--3-5-3---0--3--0--3-6-3--|

F#|---------------------------------------------------------------------|
C#|---------------------------------------------------------------------|
G#|---------------------------------------------------------------------|
C#|--0--3--0--3-5-3---0--3--0--3-6-3---0--3--0--3-5-3---0--3--0--3-6-3--|

Pre-Chorus
F#|--------------------------------------|
C#|--------------------------------------|
G#|--------------5-----------------------|
C#|--6-5--6-5--6---6-3-0-6--6-5--6-5--5--|

Chorus
F#|---------------------------------------------------------------------|
C#|---------------------------------------------------------------------|
G#|------------------------------------5-------6-------5-------------3--|
C#|--0-0-2-0-3-0-5-6--0-0-2-0-3-0-5-6--------------------6-3-0-3-0-0----|

F#|---------------------------------------------------------------------|
C#|---------------------------------------------------------------------|
G#|------------------------------------5-------6-------5-------------3--|
C#|--0-0-2-0-3-0-5-6--0-0-2-0-3-0-5-6--------------------6-3-0-3-0-0----|

F#|---------------------------------------------------------------------|
C#|---------------------------------------------------------------------|
G#|------------------------------------5-------6-------5-------------3--|
C#|--0-0-2-0-3-0-5-6--0-0-2-0-3-0-5-6--------------------6-3-0-3-0-0----|

F#|---------------------------------------------------------------------|
C#|---------------------------------------------------------------------|
G#|------------------------------------5-------6-------5-------------3--|
C#|--0-0-2-0-3-0-5-6--0-0-2-0-3-0-5-6--------------------6-3-0-3-0-0----|

Outro
F#|--------------------------------------------------------------------|
C#|--------------------------------------------------------------------|
G#|--5-------5-------5-------------3--5-------5-------5-------------3--|
C#|----6-3-0---6-3-0---6-3-0-3-0-0------6-3-0---6-3-0---6-3-0-3-0-0----|

F#|--------------------------------------------------------------------|
C#|--------------------------------------------------------------------|
G#|--5-------5-------5-------------3--5-------5-------5-------------3--|
C#|----6-3-0---6-3-0---6-3-0-3-0-0------6-3-0---6-3-0---6-3-0-3-0-0----|
            
Hard to play? Try these video lessons and learn fast. | Correct




comments powered by Disqus
↑ Back to top | Tablatures and chords are parodies/interpretations of the original songs. You may use it for private study, scholarship, research or language learning purposes only