» » »

Dope, Burn Tabs (ver.1)

Artists:  A B C D E F G H I J K L M N O P Q R S T U V W X Y Z # 

Burn Tabs (ver.1)

Dope Tabs
Rating:
0/5 (0 votes)
Burn lessons Tabs too difficult? Try these video lessons and learn fast
                Hithis is Dr.Sketchy this is my second tab. I'm sure its 100%, And I'm sure it's the 
tuning. Please don't copy and this because is my own work thanks.

Song-Burn
Artist-Dope
Album-Group Theorpy
Tuning-(B,F#,B,E,G#,C#)
Guitar 1-Virus(Lead)
Guitar 2-Edsel Dope (Rhythm)

Legend
PM=Palm Mute
*=Pinch Harmonic

Intro-Both Guitars
C#|---------------------------------------------------------------------|
G#|---------------------------------------------------------------------|
E |------------------------------------7-------7-------7----------------|
B |--0-0-2-0-3-0-5-6--0-0-2-0-3-0-5-6--7-6-3-0-7-6-3-0-7-6-3-0-3-0-5-6--|
F#|--0-0-2-0-3-0-5-6--0-0-2-0-3-0-5-6--5-6-3-0-5-6-3-0-5-6-3-0-3-0-5-6--|
B |--0-0-2-0-3-0-5-6--0-0-2-0-3-0-5-6----6-3-0---6-3-0---6-3-0-3-0-5-6--|
PM|                                    . . . . . . . . . . . .

C#|---------------------------------------------------------------------|
G#|---------------------------------------------------------------------|
E |------------------------------------7-------7-------7----------------|
B |--0-0-2-0-3-0-5-6--0-0-2-0-3-0-5-6--7-6-3-0-7-6-3-0-7-6-3-0-3-0-5-6--|
F#|--0-0-2-0-3-0-5-6--0-0-2-0-3-0-5-6--5-6-3-0-5-6-3-0-5-6-3-0-3-0-5-6--|
B |--0-0-2-0-3-0-5-6--0-0-2-0-3-0-5-6----6-3-0---6-3-0---6-3-0-3-0-5-6--|
PM|                                    . . . . . . . . . . .

Verse-Guitar 1
C#|------------------------------------------------------|
G#|------------------------------------------------------|
E |------------------------------------------------------|
B |-----------3--------3-0-5-6----------3----------------|
F#|-----------3--------3-0-5-6----------3--5---------3*--|
B |--00000000-3-000000-3-0-5-6-00000000-3----6-3-0-0-----|
PM|  ........   ......         ........    . . . . .

C#|------------------------------------------------------|
G#|------------------------------------------------------|
E |------------------------------------------------------|
B |-----------3--------3-0-5-6----------3----------------|
F#|-----------3--------3-0-5-6----------3--5---------3*--|
B |--00000000-3-000000-3-0-5-6-00000000-3----6-3-0-0-----|
PM|  ........   ......         ........    . . . . .

C#|------------------------------------------------------|
G#|------------------------------------------------------|
E |------------------------------------------------------|
B |-----------3--------3-0-5-6----------3----------------|
F#|-----------3--------3-0-5-6----------3--5---------3*--|
B |--00000000-3-000000-3-0-5-6-00000000-3----6-3-0-0-----|
PM|  ........   ......         ........    . . . . .

Verse-Guitar 2
C#|-----------------------------------------------------|
G#|-----------------------------------------------------|
E |--------------------------------------------------5--|
B |-----------3--------3-0-5-6----------3------------5--|
F#|-----------3--------3-0-5-6----------3--5---------3--|
B |--00000000-3-000000-3-0-5-6-00000000-3----6-3-0-0----|
PM|  ........   ......         ........    . . . . .

C#|-----------------------------------------------------|
G#|-----------------------------------------------------|
E |--------------------------------------------------5--|
B |-----------3--------3-0-5-6----------3------------5--|
F#|-----------3--------3-0-5-6----------3--5---------3--|
B |--00000000-3-000000-3-0-5-6-00000000-3----6-3-0-0----|
PM|  ........   ......         ........    . . . . .

C#|-----------------------------------------------------|
G#|-----------------------------------------------------|
E |--------------------------------------------------5--|
B |-----------3--------3-0-5-6----------3------------5--|
F#|-----------3--------3-0-5-6----------3--5---------3--|
B |--00000000-3-000000-3-0-5-6-00000000-3----6-3-0-0----|
PM|  ........   ......         ........    . . . . .

Pre-Chorus-Both Guitars
C#|--------------------------------------|
G#|--------------------------------------|
E |--------------7-------5---------------|
B |--6-5--6-5--6-7-6-3-0-5--6-5--6-5--5--|
F#|--6-5--6-5--6-5-6-3-0-3--6-5--6-5--5--|
B |--6-5--6-5--6---6-3-0----6-5--6-5--5--|
PM|              . . . .

Chorus-Both Guitars
C#|-----------------------------------------------------------------|
G#|-----------------------------------------------------------------|
E |------------------------------------7-------7-------7---------5--|
B |--0-0-2-0-3-0-5-6--0-0-2-0-3-0-5-6--7-6-3-0-7-6-3-0-7-6-3-0-0-5--|
F#|--0-0-2-0-3-0-5-6--0-0-2-0-3-0-5-6--5-6-3-0-5-6-3-0-5-6-3-0-0-3--|
B |--0-0-2-0-3-0-5-6--0-0-2-0-3-0-5-6----6-3-0---6-3-0---6-3-0-0----|
PM|                                    . . . . . . . . . . . . .

C#|-----------------------------------------------------------------|
G#|-----------------------------------------------------------------|
E |------------------------------------7-------8-------7---------5--|
B |--0-0-2-0-3-0-5-6--0-0-2-0-3-0-5-6--7-------8-------7-6-3-0-0-5--|
F#|--0-0-2-0-3-0-5-6--0-0-2-0-3-0-5-6--5-------6-------5-6-3-0-0-3--|
B |--0-0-2-0-3-0-5-6--0-0-2-0-3-0-5-6--------------------6-3-0-0----|
PM|                                                      . . . .

Pre-Verse-Guitar 2
C#|-------------|
G#|-------------|
E |--7-------5--|
B |--7-6-3-0-5--|
F#|--5-6-3-0-3--|
B |----6-3-0----|
PM|  . . . .

Verse-Guitar 1
C#|------------------------------------------------------|
G#|------------------------------------------------------|
E |------------------------------------------------------|
B |-----------3--------3-0-5-6----------3----------------|
F#|-----------3--------3-0-5-6----------3--5---------3*--|
B |--00000000-3-000000-3-0-5-6-00000000-3----6-3-0-0-----|
PM|  ........   ......         ........    . . . . .

C#|------------------------------------------------------|
G#|------------------------------------------------------|
E |------------------------------------------------------|
B |-----------3--------3-0-5-6----------3----------------|
F#|-----------3--------3-0-5-6----------3--5---------3*--|
B |--00000000-3-000000-3-0-5-6-00000000-3----6-3-0-0-----|
PM|  ........   ......         ........    . . . . .

C#|------------------------------------------------------|
G#|------------------------------------------------------|
E |------------------------------------------------------|
B |-----------3--------3-0-5-6----------3----------------|
F#|-----------3--------3-0-5-6----------3--5---------3*--|
B |--00000000-3-000000-3-0-5-6-00000000-3----6-3-0-0-----|
PM|  ........   ......         ........    . . . . .

Verse-Guitar 2
C#|-----------------------------------------------------|
G#|-----------------------------------------------------|
E |--------------------------------------------------5--|
B |-----------3--------3-0-5-6----------3------------5--|
F#|-----------3--------3-0-5-6----------3--5---------3--|
B |--00000000-3-000000-3-0-5-6-00000000-3----6-3-0-0----|
PM|  ........   ......         ........    . . . . .

C#|-----------------------------------------------------|
G#|-----------------------------------------------------|
E |--------------------------------------------------5--|
B |-----------3--------3-0-5-6----------3------------5--|
F#|-----------3--------3-0-5-6----------3--5---------3--|
B |--00000000-3-000000-3-0-5-6-00000000-3----6-3-0-0----|
PM|  ........   ......         ........    . . . . .

C#|-----------------------------------------------------|
G#|-----------------------------------------------------|
E |--------------------------------------------------5--|
B |-----------3--------3-0-5-6----------3------------5--|
F#|-----------3--------3-0-5-6----------3--5---------3--|
B |--00000000-3-000000-3-0-5-6-00000000-3----6-3-0-0----|
PM|  ........   ......         ........    . . . . .

Pre-Chorus-Both Guitars
C#|--------------------------------------|
G#|--------------------------------------|
E |--------------7-------5---------------|
B |--6-5--6-5--6-7-6-3-0-5--6-5--6-5--5--|
F#|--6-5--6-5--6-5-6-3-0-3--6-5--6-5--5--|
B |--6-5--6-5--6---6-3-0----6-5--6-5--5--|
PM|              . . . .

Chorus-Both Guitars
C#|-----------------------------------------------------------------|
G#|-----------------------------------------------------------------|
E |------------------------------------7-------7-------7---------5--|
B |--0-0-2-0-3-0-5-6--0-0-2-0-3-0-5-6--7-6-3-0-7-6-3-0-7-6-3-0-0-5--|
F#|--0-0-2-0-3-0-5-6--0-0-2-0-3-0-5-6--5-6-3-0-5-6-3-0-5-6-3-0-0-3--|
B |--0-0-2-0-3-0-5-6--0-0-2-0-3-0-5-6----6-3-0---6-3-0---6-3-0-0----|
PM|                                    . . . . . . . . . . . . .

C#|-----------------------------------------------------------------|
G#|-----------------------------------------------------------------|
E |------------------------------------7-------8-------7---------5--|
B |--0-0-2-0-3-0-5-6--0-0-2-0-3-0-5-6--7-------8-------7-6-3-0-0-5--|
F#|--0-0-2-0-3-0-5-6--0-0-2-0-3-0-5-6--5-------6-------5-6-3-0-0-3--|
B |--0-0-2-0-3-0-5-6--0-0-2-0-3-0-5-6--------------------6-3-0-0----|
PM|                                                      . . . .

Interlude-Both Guitars
C#|---------------------------------------------------------------------|
G#|---------------------------------------------------------------------|
E |---------------------------------------------------------------------|
B |--0--3--0--3-5-3---0--3--0--3-6-3---0--3--0--3-5-3---0--3--0--3-6-3--|
F#|--0--3--0--3-5-3---0--3--0--3-6-3---0--3--0--3-5-3---0--3--0--3-6-3--|
B |--0--3--0--3-5-3---0--3--0--3-6-3---0--3--0--3-5-3---0--3--0--3-6-3--|

C#|---------------------------------------------------------------------|
G#|---------------------------------------------------------------------|
E |---------------------------------------------------------------------|
B |--0--3--0--3-5-3---0--3--0--3-6-3---0--3--0--3-5-3---0--3--0--3-6-3--|
F#|--0--3--0--3-5-3---0--3--0--3-6-3---0--3--0--3-5-3---0--3--0--3-6-3--|
B |--0--3--0--3-5-3---0--3--0--3-6-3---0--3--0--3-5-3---0--3--0--3-6-3--|

C#|-------------------------------------------------------------|
G#|-------------------------------------------------------------|
E |--7-------7-------7-------------7-------7-------7------------|
B |--7-6-3-0-7-6-3-0-7-6-3-0-3-0---7-6-3-0-7-6-3-0-7-6-3-0-3-0--|
F#|--5-6-3-0-5-6-3-0-5-6-3-0-3-0---5-6-3-0-5-6-3-0-5-6-3-0-3-0--|
B |----6-3-0---6-3-0---6-3-0-3-0-----6-3-0---6-3-0---6-3-0-3-0--|
PM|  . . . . . . . . . . . .      . . . . . . . . . . . .

C#|-------------------------------------------------------------|
G#|-------------------------------------------------------------|
E |--7-------7-------7-------------7-------7-------7------------|
B |--7-6-3-0-7-6-3-0-7-6-3-0-3-0---7-6-3-0-7-6-3-0-7-6-3-0-3-0--|
F#|--5-6-3-0-5-6-3-0-5-6-3-0-3-0---5-6-3-0-5-6-3-0-5-6-3-0-3-0--|
B |----6-3-0---6-3-0---6-3-0-3-0-----6-3-0---6-3-0---6-3-0-3-0--|
PM|  . . . . . . . . . . . .      . . . . . . . . . . . .

C#|---------------------------------------------------------------------|
G#|---------------------------------------------------------------------|
E |---------------------------------------------------------------------|
B |--0--3--0--3-5-3---0--3--0--3-6-3---0--3--0--3-5-3---0--3--0--3-6-3--|
F#|--0--3--0--3-5-3---0--3--0--3-6-3---0--3--0--3-5-3---0--3--0--3-6-3--|
B |--0--3--0--3-5-3---0--3--0--3-6-3---0--3--0--3-5-3---0--3--0--3-6-3--|

C#|---------------------------------------------------------------------|
G#|---------------------------------------------------------------------|
E |---------------------------------------------------------------------|
B |--0--3--0--3-5-3---0--3--0--3-6-3---0--3--0--3-5-3---0--3--0--3-6-3--|
F#|--0--3--0--3-5-3---0--3--0--3-6-3---0--3--0--3-5-3---0--3--0--3-6-3--|
B |--0--3--0--3-5-3---0--3--0--3-6-3---0--3--0--3-5-3---0--3--0--3-6-3--|

C#|---------------------------------------------------------------------|
G#|---------------------------------------------------------------------|
E |---------------------------------------------------------------------|
B |--0--3--0--3-5-3---0--3--0--3-6-3---0--3--0--3-5-3---0--3--0--3-6-3--|
F#|--0--3--0--3-5-3---0--3--0--3-6-3---0--3--0--3-5-3---0--3--0--3-6-3--|
B |--0--3--0--3-5-3---0--3--0--3-6-3---0--3--0--3-5-3---0--3--0--3-6-3--|

C#|---------------------------------------------------------------------|
G#|---------------------------------------------------------------------|
E |---------------------------------------------------------------------|
B |--0--3--0--3-5-3---0--3--0--3-6-3---0--3--0--3-5-3---0--3--0--3-6-3--|
F#|--0--3--0--3-5-3---0--3--0--3-6-3---0--3--0--3-5-3---0--3--0--3-6-3--|
B |--0--3--0--3-5-3---0--3--0--3-6-3---0--3--0--3-5-3---0--3--0--3-6-3--|

Pre-Chorus-Both Guitars
C#|--------------------------------------|
G#|--------------------------------------|
E |--------------7-------5---------------|
B |--6-5--6-5--6-7-6-3-0-5--6-5--6-5--5--|
F#|--6-5--6-5--6-5-6-3-0-3--6-5--6-5--5--|
B |--6-5--6-5--6---6-3-0----6-5--6-5--5--|
PM|              . . . .

Chorus-Both Guitars
C#|-----------------------------------------------------------------|
G#|-----------------------------------------------------------------|
E |------------------------------------7-------7-------7---------5--|
B |--0-0-2-0-3-0-5-6--0-0-2-0-3-0-5-6--7-6-3-0-7-6-3-0-7-6-3-0-0-5--|
F#|--0-0-2-0-3-0-5-6--0-0-2-0-3-0-5-6--5-6-3-0-5-6-3-0-5-6-3-0-0-3--|
B |--0-0-2-0-3-0-5-6--0-0-2-0-3-0-5-6----6-3-0---6-3-0---6-3-0-0----|
PM|                                    . . . . . . . . . . . . .

C#|-----------------------------------------------------------------|
G#|-----------------------------------------------------------------|
E |------------------------------------7-------8-------7---------5--|
B |--0-0-2-0-3-0-5-6--0-0-2-0-3-0-5-6--7-------8-------7-6-3-0-0-5--|
F#|--0-0-2-0-3-0-5-6--0-0-2-0-3-0-5-6--5-------6-------5-6-3-0-0-3--|
B |--0-0-2-0-3-0-5-6--0-0-2-0-3-0-5-6--------------------6-3-0-0----|
PM|                                                      . . . .

C#|-----------------------------------------------------------------|
G#|-----------------------------------------------------------------|
E |------------------------------------7-------7-------7---------5--|
B |--0-0-2-0-3-0-5-6--0-0-2-0-3-0-5-6--7-6-3-0-7-6-3-0-7-6-3-0-0-5--|
F#|--0-0-2-0-3-0-5-6--0-0-2-0-3-0-5-6--5-6-3-0-5-6-3-0-5-6-3-0-0-3--|
B |--0-0-2-0-3-0-5-6--0-0-2-0-3-0-5-6----6-3-0---6-3-0---6-3-0-0----|
PM|                                    . . . . . . . . . . . . .

C#|-----------------------------------------------------------------|
G#|-----------------------------------------------------------------|
E |------------------------------------7-------8-------7---------5--|
B |--0-0-2-0-3-0-5-6--0-0-2-0-3-0-5-6--7-------8-------7-6-3-0-0-5--|
F#|--0-0-2-0-3-0-5-6--0-0-2-0-3-0-5-6--5-------6-------5-6-3-0-0-3--|
B |--0-0-2-0-3-0-5-6--0-0-2-0-3-0-5-6--------------------6-3-0-0----|
PM|                                                      . . . .

Outro-Both Guitars
C#|----------------------------------------------------------------|
G#|----------------------------------------------------------------|
E |--7-------7-------7----------------7-------7-------7---------5--|
B |--7-6-3-0-7-6-3-0-7-6-3-0-3-0-5-6--7-6-3-0-7-6-3-0-7-6-3-0-0-5--|
F#|--5-6-3-0-5-6-3-0-5-6-3-0-3-0-5-6--5-6-3-0-5-6-3-0-5-6-3-0-0-3--|
B |----6-3-0---6-3-0---6-3-0-3-0-5-6----6-3-0---6-3-0---6-3-0-0----|
PM|  . . . . . . . . . . . .          . . . . . . . . . . . . .

C#|----------------------------------------------------------------|
G#|----------------------------------------------------------------|
E |--7-------7-------7----------------7-------7-------7---------5--|
B |--7-6-3-0-7-6-3-0-7-6-3-0-3-0-5-6--7-6-3-0-7-6-3-0-7-6-3-0-0-5--|
F#|--5-6-3-0-5-6-3-0-5-6-3-0-3-0-5-6--5-6-3-0-5-6-3-0-5-6-3-0-0-3--|
B |----6-3-0---6-3-0---6-3-0-3-0-5-6----6-3-0---6-3-0---6-3-0-0----|
PM|  . . . . . . . . . . . .          . . . . . . . . . . . . .
            
Submit corrections

comments powered by Disqus
↑ Back to top | Dope Tabs for Burn. Lyrics for acoustic guitar and electric guitar. Tablatures and chords are parodies/interpretations of the original songs. You may use it for private study, scholarship, research or language learning purposes only