>
 >
What A Fool Believes

What A Fool Believes Bass Tabs

Doobie Brothers - What A Fool Believes chords, tabs, tablatures, lyrics

Guitar lessons | Add/correct | Request | Top 50 tabs Artists:  A B C D E F G H I J K L M N O P Q R S T U V W X Y Z 0-9

What A Fool Believes Bass Tabs – Doobie Brothers

CD, Sheet music, Poster

Do you like What A Fool Believes? Share with your friends now
Bass TabsBass Tabs v2ChordsChords v2Chords v3Chords v4TabsTabs v2

Verse 1
G|-----------------------------------------------------|-------------------|
D|--6--------------------------------------4--------3--|-------------------|
A|-----------------------------------------------------|-------------------|
E|-----------------------------------------------------|-------------------|

G|--------------------------|-----------------------|-------------------|
D|--------------------------|--------------7--------|-------------------|
A|--6-----------------------|-----------------7-----|-------------------|
E|--------1--2--4--------6--|--------------------5--|-------------------|

G|-------------------------|-------------------|--------------------------|
D|--6----------4--------3--|-------------------|--------------6--------8--|
A|-------------------------|-------------------|--6-----8--9--------------|
E|-------------------------|-------------------|--------------------------|

G|-----------------------|-------------------------|-------------------|
D|---------7--7----------|--6----------4--------3--|-------------------|
A|---------------7-------|-------------------------|-------------------|
E|------------------5----|-------------------------|-------------------|

G|--------------------------|-----------------------|-------------------------|
D|--------------6--------8--|-----------7--7--------|-------------------------|
A|--6-----8--9--------------|-----------------7-----|-------------------------|
E|--------------------------|--------------------5--|--4----------2--------1--|

G|-------------------|--------------------------|-----------------------|
D|-------------------|--------------------------|-----------7--7--------|
A|-------------------|--6-----------------------|-----------------7-----|
E|-------------------|--------1--2--4--------6--|--------------------5--|

G|-------------------------|--------------------------|
D|--6----------5--------3--|--------------------------|
A|-------------------------|--6-----------------------|
E|-------------------------|--------1--2--4--------6--|

G|--------------6p--5--------||
D|-----------8---------8-----||
A|--------8---------------8--||
E|-----6---------------------||

Pre-Chorus
G|---------------------------------------------------|----------------------|
D|--------------------------------------8---------8--|---------8------------|
A|-----------------------------------------8---------|----------------------|
E|--6------------------------------------------------|--6---------6----5----|

G|----------------------|------------------------|----------------------|
D|---------6---------6--|---------6-----6--------|---------8---------8--|
A|------------6---------|------------6-----------|------------8---------|
E|--4-------------------|--4---------------4--5--|--6-------------------|

G|----------------------|-----------------------|------------------------|
D|---------8------------|---------6---------6---|---------6--------------|
A|----------------------|------------6--------6-|------------6--------6--|
E|--6---------6----5----|--4--------------------|--4------------4--------|

G|----------------------|----------------------|---------------------|
D|----------------------|----------------------|---------------------|
A|--L----------------4--|--L----------------6--|--L------------------|
E|---------4--L---------|---------7----6-------|---------4--L--------|

G|----------------------|------------------------|----------------------|
D|--8-------------------|--8---------------------|-----5----------------|
A|----------------------|------------------------|----------------------|
E|-----6----------------|-----6------------5--4--|--3-------------------|

G|-------------------------||
D|--5----------1--2--3--4--||
A|-------------------------||
E|-----3-------------------||

Chorus 1
G|---------------------------------------------------|
D|---------------------------------------------------|
A|---------------------------------------------------|
E|--2-------------------------------2----------------|

G|--------------------------|----------------------|--------------------------|
D|--4-----------------------|-----9----------------|-----2-----2--------------|
A|--------------------------|----------------------|--2-----------4--2--------|
E|-----2-----4-----5-----6--|--7-------------------|--------------------4--2--|

G|----------------------|----------------------|-----------------------|
D|----------------------|----------------------|-----------------------|
A|----------------------|--7--7----------------|--4--4--------------4--|
E|--0--0----------------|----------------------|-----------------------|

G|--------------------------|----------------------|--------------------------|
D|--------------------------|--4-------------------|--4-----------------------|
A|--------------------------|----------------------|--------------------------|
E|--8--7--6--5-----4-----4--|-----2----------------|-----2-----4-----5-----6--|

G|----------------------|--------------------------|----------------------|
D|-----9----------------|-----9-----9--6-----------|----------------------|
A|----------------------|-----------------9--------|--7--7----------------|
E|--7-------------------|--7-----------------9--7--|----------------------|

G|----------------------|-----------------------|-----------------------||
D|----------------------|-----------------------|-----------------------||
A|--7--7----------------|--4--4--------------4--|-----------------------||
E|----------------------|-----------------------|--8--7--6--5--L--------||

Verse 2
G|-----------------------------------------------------|-------------------|
D|--6--------------------------------------4--------3--|-------------------|
A|-----------------------------------------------------|-------------------|
E|-----------------------------------------------------|-------------------|

G|--------------------------|-----------------------|-------------------------|
D|--------------6--------8--|-----------7--7--------|-------------------------|
A|--6-----8--7--------------|-----------------7-----|-------------------------|
E|--------------------------|--------------------5--|--4----------2--------1--|

G|-------------------|--------------------------|--------------6p--5--------||
D|-------------------|--------------------------|-----------8---------8-----||
A|-------------------|--6-----------------------|--------8---------------8--||
E|-------------------|--------1--2--4--------6--|-----6---------------------||

Chorus 2
G|---------------------------------------------------|
D|---------------------------------------------------|
A|---------------------------------------------------|
E|--2-------------------------------2----------------|

G|--------------------------|----------------------|--------------------------|
D|--4-----------------------|-----9----------------|-----9-----6--L-----------|
A|--------------------------|----------------------|-----------------7--4-----|
E|-----2-----4-----5-----6--|--7-------------------|--7--------------------7--|

G|----------------------|----------------------|-----------------------|
D|----------------------|----------------------|-----------------------|
A|--7--7----------------|--7--7----------------|--4--4--------------4--|
E|----------------------|----------------------|-----------------------|

G|--------------------------|----------------------|--------------------------|
D|--------------------------|--4-------------------|--4-----------------------|
A|--------------------------|----------------------|--------------------------|
E|--8--7--6--5-----4-----4--|-----2----------------|-----2-----4-----5-----6--|

G|----------------------|--------------------------|----------------------|
D|-----9----------------|-----9-----9--6-----------|----------------------|
A|----------------------|-----------------9--------|--7--7----------------|
E|--7-------------------|--7-----------------9--7--|----------------------|

G|----------------------|-----------------------|------------------------|
D|----------------------|-----------------------|------------------------|
A|--7--7----------------|--4--4--------------4--|------------------------|
E|----------------------|-----------------------|--8--7--6--5-----4------|

G|----------------------|--------------------------|----------------------|
D|----------------------|--4-----------------------|-----9----------------|
A|----------------------|--------------------------|----------------------|
E|--2--2----------------|-----2-----4-----5-----6--|--7--------------7----|

G|-------------------------|----------------------|----------------------|
D|----------9--6-----------|----------------------|----------------------|
A|----------------9--------|--7--7----------------|--7--7----------------|
E|--L----------------9--7--|----------------------|----------------------|

G|-----------------------|------------------------||
D|-----------------------|------------------------||
A|--4--4--------------4--|------------------------||
E|-----------------------|--8--7--6--5-----4------||





Comments


Popular Doobie Brothers tabs & chords
China Grove 2 Chords
Drift Away Chords
Jesus Is Just Alright Chords
Listen To The Music 6 Chords
Wynken, Blynken And Nod Chords
Black Water 2 Tabs
Disciple Intro Tabs
Rockin' Down The Highway 1 Tabs
Wheels Of Fortune Tabs
Toulouse Street Ukulele


Song lyrics



↑ Back to top | Tablatures and chords are parodies/interpretations of the original songs. You may use it for private study, scholarship, research or language learning purposes only
© 2014 AZChords.com Contact us | Privacy policy | DMCA | Add/correct tabs | Request tabs | Top 50 tabs