» » »

Doobie Brothers, Long Train Runnin’ Bass tabs (ver.2)

Artists:  A B C D E F G H I J K L M N O P Q R S T U V W X Y Z # 

Long Train Runnin’ Bass tabs (ver.2)

Doobie Brothers Tabs
Rating:
0/5 (0 votes)
Long Train Runnin’ lessons Tabs too difficult? Try these video lessons and learn fast
                *******************************
*Song: Long train running     *
*Performed by: Doobie Brothers*
*******************************

Bass tab

/=slide up
\=slide down
h=hammer on
p=pull off

Standard tuning, low to high - EADG

INTRO

riff1
G|-0h3-3-0---------------|
D|---------5p3-3h5p3-----|
A|-------------------5p3-|x1
E|-----------------------|

riff2
G|---------------|
D|-------3-3h5p3-|
A|---3-5---------|x8  (verse riff)
E|-3-------------|

riff3
G|---------------------|-----------------|
D|---------------------|-----------------|
A|-3-3-----1-3-3-----1-|-3-3-----1-3-3/5-|x1
E|-----3-3-------3-3---|-----3-3---------|
  "Without love where would you be now..."

riff2 x2

riff4
G|-------------|-------------|
D|-------------|-------------|
A|-6---4-6-6-6-|-5---3-5-5-5-|x1
E|---6---------|---5---------|
      "Without love..."
riff2 x6
riff3 x1
riff2 x2
riff4 x1
riff2 x2

riff5
G|-------|
D|-------|
A|-------|x4
E|-3---1-|

riff3 x1
riff2 x2
riff4 x1
riff2 x6 \
riff3 x1  \
riff2 x2   }  mouth-organ solo
riff4 x1  /
riff2 x2 /
riff5 x4
riff3 x1
riff2 x2
riff4 x1
riff2 x2

(riff5)
G|--------------|
D|--------------|
A|--------------|x4
E|-3--3--3--3-1-|

riff3 x1
riff2 x2

G|---|-----|----|
D|---|-----|----|
A|-6-|-5-5-|-10-|
E|---|-----|----|

riff1 x1
riff2 x11

G|-----3-----------|
D|-3-5---5-3-------|
A|-----------5-3---|
E|---------------6-|

fade out with riff2
___________________________________________________________
reason...
            

comments powered by Disqus
↑ Back to top | Doobie Brothers Bass for Long Train Runnin’. Lyrics for acoustic guitar and electric guitar. Tablatures and chords are parodies/interpretations of the original songs. You may use it for private study, scholarship, research or language learning purposes only