» » »

Larry The Logger Tabs (ver.2)

Artists:  A B C D E F G H I J K L M N O P Q R S T U V W X Y Z # 

Larry The Logger Tabs (ver.2)

Doobie Brothers
Rating:
0/5 (0 votes)

Hard to play? Try these video lessons and learn fast.
                ----------------------------------------------------------------------
     LARRY THE LOGGER TWO-STEP - Doobie Brothers/Patrick Simmons
----------------------------------------------------------------------


capo 2nd fret
                        C                                   C
e:-------0--3-------0-------------0--------0-------------------------|
B:----4-----------4-----1-------4------3/5------5\3-------0h1--------|
G:--0----------------------------------------0-------0---------------|
D:-------0-----2------0------2------0--3/5-----(5\3)---3-------2-----|
A:----------3-------------3---------------------------------3--------|
E:----------------3-------------3------------------------------------|


            C             C            C       G     C
e:----0---3-------5-----0----------0---------------------------------|
B:--4---------------4------------4-----1-----------0-1---------------|
G:-----------------------------------------------0-------------------|
D:------0------2------0------2-------0------2------0------2----------|
A:----------3-------------3--------------3-------------3-------------|
E:--3-------------3--------------3-------------3---------------------|


    E      Am                        C
e:----------------------------------------------0--------------------|
B:----0------1----0h1p0----------------1----3/4---4-3-------0-1------|
G:--1------2------------0--0h2p0---0------------------5---0----------|
D:------2------2--------2--------3-------2------4-------4------------|
A:---------0-------------------------3--------------5-----------0----|
E:--0-------------0--------1----------------5---------------3--------|


                         C           C             Am
e:-----0--3-----5-----0----------0-----------5-----------------------|
B:--4-------------4------------4-----1---------4---1-----------------|
G:-------------------------------------------------------------------|
D:-----0-----2------0-------2------0------2------0------2------------|
A:--------3--------------3-------------3-------------0---------------|
E:--3-----------3--------------3-------------3-----------------------|


                       C                           Am
e:--------------------------------0----------0-----------------------|
B:--0h1p0----------------1----3/4---4-3--------0----1----------------|
G:--------0--0h2p0---0------------------5-----------2----------------|
D:--------2--------3-------2------4-------4------0-----2-------------|
A:---------------------3------5-------5------7------0----------------|
E:--0--------1-------------------------------------------------------|



e:----------0-----------0-----------------0-----1p0------------------|
B:-----3----------3---------3--------3----------------3--------------|
G:-----3--------3---3----------------2--------2-----------2---0------|
D:-----2------2-------2-------0------3------3-------3-------3--------|
A:--3-------------3--------------------------------------------------|
E:--------3---------------3-----0h1-----1-------1-------1------------|



e:----------0-----------0----------3--1h3p1-0------------------------|
B:-----3----------3---------3-----------------3-----1-0--------------|
G:-----5--------5---5-----------0--4--2-----0-----0-------2---0------|
D:-----4------4-------4-------4-----------------3---2---0------------|
A:--5-------------5-----------------------------------------3---2----|
E:--------5---------------5------------------------------------------|


                                C
e:--1--1--1-----3-3---0------------------0------3-3----3-------------|
B:--1--1--0-----3---------3-----1---------------1-1----1-------------|
G:----------------------------0------0-------0-----------------------|
D:-----0-----0------3-------3------2-------2--------2-----2----------|
A:------------------------------3---------------3--------------------|
E:--3-----3-----3-------3--------------3---------------3-------------|



e:--3p0---3p0---3p0---3p0---3p0---------------------------0----------|
B:------3-----3-----3-----3-----3--4/5-1-------0-3-1-----------------|
G:---------------------------------------2---0----------0------------|
D:------3-------3-------3-------3----------3----------------0--------|
A:----------------------------------------------------3--------------|
E:--3-------3-------3-------3----------------------------------------|


                                C      E      Am    C7
e:--3-3---0----------------------------------------------------------|
B:----------------4-4---3-------1--------0------1--------------------|
G:-----------------------------------0h1------2-----3----------------|
D:------3------3------3------3-----2-------2------2------2-----------|
A:------------------------------3-------------0-------3--------------|
E:--3-------3-----3-------3----------0-------------------------------|


                    C
e:------------------0------5----8-0-1-2-3-0-5-3-0-1-2-3-0---------0--|
B:------------1-------1----2------------------------------1-----4----|
G:--2p0---0-2-----0-----------------------------------------2-0------|
D:------3-------3-------0--------------------------------------------|
A:------------------3--------0---------------------------------------|
E:--1-------1--------------------------------------------------------|



e:-------------------8-(8)---||
B:--1-------0-3-1------------||
G:----2---0----------5-(5)---||
D:------3--------------------||
A:----------------3----------||
E:---------------------------||



p = pull-off    / = slide up    ( ) = ringing note
h = hammer-on   \ = slide down


Source: This tab is based primarily on the outstanding version of this song done by
Doobie Brothers album titled “Livin’ On The Fault Line”, released in 1977.
            
Hard to play? Try these video lessons and learn fast. | Correct




comments powered by Disqus
↑ Back to top | Tablatures and chords are parodies/interpretations of the original songs. You may use it for private study, scholarship, research or language learning purposes only