>
 >
Colours

Colours Guitar Tabs

Donovan - Colours chords, tabs, tablatures, lyrics

Guitar lessons | Add/correct | Request | Top 50 tabs Artists:  A B C D E F G H I J K L M N O P Q R S T U V W X Y Z 0-9

Colours Guitar Tabs – Donovan

CD, Sheet music, Poster

Do you like Colours? Share with your friends now
ChordsChords v2Chords v3Chords v4TabsTabs v2Ukulele
----------------------------------------------------------------------------
----------------------------------------------------------------------------


Tuning: Guitar 1: D A D G B E (Drop D) 
        Guitar 2: D A D F# A D (Open D)
 


 (Guitar 1)
e|-------------------------------------------------------------------------|
B|----------------3-----------------3-----------------3-----------------0--|
G|----------2-----------------0-----------------2-----------------5--------|
D|-------0-----------------4-----------------0-----------------5-----------|
A|-------------------------------------------------------------------------|
E|----0--------0--------0--------0--------0--------0--------0--------0-----|

e|-------------------------------------------------------------------------|
B|----------------3-----------------3-----------------3-----------------0--|
G|----------2-----------------0-----------------2-----------------5--------|
D|-------0-----------------4-----------------0-----------------5-----------|
A|-------------------------------------------------------------------------|
E|----0--------0--------0--------0--------0--------0--------0--------0-----|

e|----------14---12---10---------------------------------------------------|
B|-------------------------10---12---10------------------------------------|
G|----------------------------------------12--------9----------------------|
D|-------0----------0---------0---------0------12-------12---9-------------|
A|------------------------------------------------0--------0-----10--------|
E|----0--------0---------0---------0---------0--------0--------0-----------|



 (Guitar 2)
e|-----------0----------0----------0---------------------------------------|
B|--------0----------0----------0--------------0----------0----------0-----|
G|---0---------0h1---------0----------------0----------0----------0--------|
D|------------------------------------0h2---------0------------------------|
A|-----------------------------------------------------------0h2-----------|
E|-------------------------------------------------------------------------|

e|-------------------------------------------------------------------------|
B|---------------------------0------------0------------0---0---0-----------|
G|--------0-------0-------0------------0------------0--------0-------------|
D|------------0----------------0------------0------------0-----------------|
A|---0---------------0h2----------0h2----------0h2-------------------------|
E|----------------------------------------------------------------3b*--3b*-|


Verse 1

  (Guitar 1)
e|-------------------------------------------------------------------------|
B|-----0-------------0-------------0-------------0-------------0-----------|
G|-----------0-------------0-------------0-------------0-------------0-----|
D|-----0-------0-----0-------0-----0-------0-----0-------0-----0-------0---|
A|-------------------------------------------------------------------------|
E|--0-----0-------0-----0-------0-----0-------0-----0-------0-----0--------|
 |(Guitar 2)
e|-----2-----2-------2-----2-------2-----2-------2-----2-------2-----2-----|
B|-----3-----3-------3-----3-------3-----3-------3-----3-------3-----3-----|
G|-----2-----2-------2-----2-------2-----2-------2-----2-------2-----2-----|
D|--0-------------0-------------0-------------0-------------0--------------|
A|--------0-------------0-------------0-------------0-------------0--------|
E|-------------------------------------------------------------------------|

(Repeat 2x)
e|-------------------------------------------------------------------------|
B|--------------5-------------5----0-------0-----0-------0-----------------|
G|----------5-------------5------------0-------------0---------------------|
D|-----5------5------5------5------0------0------0-----0-------------------|
A|-------------------------------------------------------------------------|
E|--5-----5-------5-----5-------0-----0-------0-----0----------------------|
 |
e|---------------------------------2-----2-------2-----2-------------------|
B|-----0-----0-------0-----0-------3-----3-------3-----3-------------------|
G|-----0-----0-------0-----0-------2-----2-------2-----2-------------------|
D|--------0-------------0-------0-------------0----------------------------|
A|------------------------------------0-------------0----------------------|
E|--5-------------5--------------------------------------------------------|

 
e|-------------------------------------------------------------------------|
B|-----7----------7--------7-------5----------5--------5-------------------|
G|-----------7---------7-----------------5---------5-----------------------|
D|-----7-------7-----7-------7-----5-------5-----5-------5-----------------|
A|-------------------------------------------------------------------------|
E|--7-----7-------7------7------5-----5-------5------5---------------------|
 |
e|-------------------------------------------------------------------------|
B|-----5-----5-------5-----5-------0-----0-------0-----0-------------------|
G|-----6-----6-------6-----6-------0-----0-------0-----0-------------------|
D|--------7-------------7-------------0-------------0----------------------|
A|-------------------------------------------------------------------------|
E|--7-------------7-------------5-------------5----------------------------|


e|-------------------------------------------------------------------------|
B|-----0-------------0-------------0-------------0-------------------------|
G|-----------0-------------0-------------0-------------0-------------------|
D|-----0-------0-----0-------0-----0-------0-----0-------0-----------------|
A|-------------------------------------------------------------------------|
E|--0-----0-------0-----0-------0-----0-------0-----0----------------------|
 |
e|-----2-----2-------2-----2-------2-----2-------2-----2-------------------|
B|-----3-----3-------3-----3-------3-----3-------3-----3-------------------|
G|-----2-----2-------2-----2-------2-----2-------2-----2-------------------|
D|--0-------------0-------------0-------------0----------------------------|
A|--------0-------------0-------------0-------------0----------------------|
E|-------------------------------------------------------------------------|


Verse 2

e|--7--------4h5--4-----0h2-----0----------------------0-------------------|
B|---------------------------------------0h2--0----------------------------|
G|------0-------------0----------------------------0----0------------------|
D|----0------0------0-------0------0-----0-------0-------------------------|
A|-------------------------------------------------------------------------|
E|--0-----0-------0-----0-------0-----0-------0------0---------------------|
 |
e|-----2-----2-------2-----2-------2-----2-------2-----2-------------------|
B|-----3-----3-------3-----3-------3-----3-------3-----3-------------------|
G|-----2-----2-------2-----2-------2-----2-------2-----2-------------------|
D|--0-------------0-------------0-------------0----------------------------|
A|--------0-------------0-------------0-------------0----------------------|
E|-------------------------------------------------------------------------|


e|-------------------------------4--------4h5-4----------------------------|
B|--5---------5---5----------5-------------------------0-------------------|
G|-------5-------------5--------------0------------0-----------------------|
D|-----5--------5----5--------5-----0-----0------0-------0-----------------|
A|-------------------------------------------------------------------------|
E|--5-------5-----5-------5------0------0-----0------0---------------------|
 |
e|---------------------------------2-----2-------2-----2-------------------|
B|-----0-----0-------0-----0-------3-----3-------3-----3-------------------|
G|-----0-----0-------0-----0-------2-----2-------2-----2-------------------|
D|--------0-------------0-------0-------------0----------------------------|
A|------------------------------------0-------------0----------------------|
E|--5-------------5--------------------------------------------------------|


e|------------------------------4-------------4----------------------------|
B|--5--------5----5-------5--------------0-------------0-------------------|
G|-------5------------5--------------0-------------0-----------------------|
D|-----5--------5----5-------5-----0--------0----0-------0-----------------|
A|-------------------------------------------------------------------------|
E|--5------5------5-----5-------0------0------0------0---------------------|
 |
e|---------------------------------2-----2-------2-----2-------------------|
B|-----0-----0-------0-----0-------3-----3-------3-----3-------------------|
G|-----0-----0-------0-----0-------2-----2-------2-----2-------------------|
D|--------0-------------0-------0-------------0----------------------------|
A|------------------------------------0-------------0----------------------|
E|--5-------------5--------------------------------------------------------|


e|-------------------------------------------------------------------------|
B|-----7----------7--------7-------5----------5--------5-------------------|
G|-----------7---------7-----------------5---------5-----------------------|
D|-----7-------7-----7-------7-----5-------5-----5-------5-----------------|
A|-------------------------------------------------------------------------|
E|--7-----7-------7------7------5-----5-------5------5---------------------|
 |
e|-------------------------------------------------------------------------|
B|-----5-----5-------5-----5-------0-----0-------0-----0-------------------|
G|-----6-----6-------6-----6-------0-----0-------0-----0-------------------|
D|--------7-------------7-------------0-------------0----------------------|
A|-------------------------------------------------------------------------|
E|--7-------------7-------------5-------------5----------------------------|


e|--4-------------4--------------------------------------------------------|
B|---------------------------------0-------------0-------------------------|
G|-----------0-------------0-------------0-------------0-------------------|
D|-----0-------0-----0-------0-----0-------0-----0-------0-----------------|
A|-------------------------------------------------------------------------|
E|--0-----0-------0-----0-------0-----0-------0-----0----------------------|
 |
e|-----2-----2-------2-----2-------2-----2-------2-----2-------------------|
B|-----3-----3-------3-----3-------3-----3-------3-----3-------------------|
G|-----2-----2-------2-----2-------2-----2-------2-----2-------------------|
D|--0-------------0-------------0-------------0----------------------------|
A|--------0-------------0-------------0-------------0----------------------|
E|-------------------------------------------------------------------------|



Repeat Verse 3x


| /  slide up
| \  slide down
| h  hammer-on
| p  pull-off
| ~  vibrato
| +  harmonic
| x  Mute note
===========================================================================





Comments


Popular Donovan tabs & chords
Catch The Wind Chords
Donna Donna Chords
Jersey Thursday Chords
London Town Chords
The Summer Day Reflection Song Chords
Atlantis Tabs
Riki Tiki Tavi Tabs
Tangerine Puppet Tabs
Young But Growing Tabs
Trudi Ukulele


Song lyrics



↑ Back to top | Tablatures and chords are parodies/interpretations of the original songs. You may use it for private study, scholarship, research or language learning purposes only
© 2014 AZChords.com Contact us | Privacy policy | DMCA | Add/correct tabs | Request tabs | Top 50 tabs