>
 >
Colours 1

Colours 1 Guitar Tabs

Donovan - Colours 1 chords, tabs, tablatures, lyrics

Guitar lessons | Add/correct | Request | Top 50 tabs Artists:  A B C D E F G H I J K L M N O P Q R S T U V W X Y Z 0-9

Colours 1 Guitar Tabs – Donovan

CD, Sheet music, Poster

Do you like Colours 1? Share with your friends now
ChordsChords v2Chords v3Chords v4TabsTabs v2Ukulele
Original version from "Cathc The Wind"

Open D tuning (D,A,D,F#,A,d)
Capo on 2nd fret (actual key E major)
D(E): x00000
G(A): x55555
A(B): x77777

Intro:
 D(E)
|----0---0-0---------0-0-----0-0-|----0-------0-0-----0-------0-0-|
|----0---0-0---------0-0-----0-0-|----0-------0-0-----0-------0-0-|
|0---0---0-0-0h1-0---0-0-----0-0-|----0-------0-0-----0-------0-0-|
|----0-------------------0h2-----|0-------------------------------|
|----0---------------------------|--------0h2-----0-------0-------|
|----0---------------------------|--------------------------------|

|----0-0-0-0-----0-0-0-0-----0-0-|----0-------0-0-----0-0---0-0-0-|
|----0-0-0-0-----0-0-0-0-----0-0-|----0-------0-0-----0-0---0-0-0-|
|----0-0-0-0-----0-0-0-0-----0-0-|----0-------0-0-----0-0---0-0-0-|
|--------0-------0---------------|0-----------0-------------------|
|0h2---------0h2---------0h2-----|------------------------0-------|
|--------------------------------|--------2b3-----0---------------|

|----0-0---0-0-0-|
|----0-0---0-0-0-|
|----0-0---0-0-0-|
|0---------------|
|--------0-------|
|----------------|

Verse sequence:

 D(E)
|----0-0---0---0-----0-0---0-0-0-|----0-0---0---------0-0---0-0-0-|
|----0-0---0---0-----0-0---0-0-0-|----0-0---0---------0-0---0-0-0-|
|----0-0---0-1---0---0-0---0-0-0-|----0-0---0---------0-0---0-0-0-|
|0---------------0---------------|0-------------------------------|
|--------0---------------0-------|--------0---2---0-------0-------|
|--------------------------------|--------------------------------|
 Yellow  is  the colour  of  my   true      love’s hair   in  the

 G(A)                             D(E)
|----5-----5-5-5-----5-----5-5-5-|--------0-0---0-----0-0---0-0-0-|
|----5-----5-5-5-----5-----5-5-5-|---(0)--0-0---0-----0-0---0-0-0-|
|----5-----5-5-5-----5-----5-5-5-|----0---0-0-0h1-0---0-0---0-0-0-|
|----5-------5-------5-------5---|------------------------0-------|
|5-------5-------5-------5-------(0)------------------------------|
|--------------------------------|0-------------------------------|
 Morning’                when we  rise                    In  the                 

 G(A)                             D(E)
|----5-----5-5-5-----5-----5-5-5-|--------0-0---0-----0-0---0-0-0-|
|----5-----5-5-5-----5-----5-5-5-|---(0)--0-0---0-----0-0---0-0-0-|
|----5-----5-5-5-----5-----5-5-5-|----0---0-0-0h1-0---0-0---0-0-0-|
|----5-------5-------5-------5---|------------------------0-------|
|5-------5-------5-------5-------(0)------------------------------|
|--------------------------------|0-------------------------------|
 Morning’                when we  rise                   That’s the

 A(B)                             G(A)
|----7-----7-7-7-----7-----7-7-7-|----5-----5-5-5-----5-----5-5-5-|
|----7-----7-7-7-----7-----7-7-7-|----5-----5-5-5-----5-----5-5-5-|
|----7-----7-7-7-----7-----7-7-7-|----5-----5-5-5-----5-----5-5-5-|
|----7-------7-------7-------7---|----5-------5-------5-------5---|
|7-------7-------7-------7-------|5-------5-------5-------5-------|
|--------------------------------|--------------------------------|
 Time                  That’s the time                I   love the 

 D(E)
|--------0-0-0-0-----0-0-0-0-0-0-|----0-0---0-0-0-----0-0-0-0-0-0-|
|---(0)--0-0-0-0-----0-0-0-0-0-0-|----0-0---0-0-0-----0-0-0-0-0-0-|
|----0---0-0-0-0-0h1-1-1-1-1-1-1-|0---0-0---0-0-0-----0-0-0-0-0-0-|
|--------0---0-----------0---0---|--------0---------------0---0---|
|--------------------------------|----------------0-------0-------|
|0-------------------------------|--------------------------------|
 Best.

Harp key: A (diatonic)
Harmonica solo sequence is same as verse except replace bars 1&2 withh:
 D(E)
|----0-0-------------0-0-----0-0-|----0-0-----0-0-----0-0---0-0-0-|
|----0-0-------------0-0-----0-0-|----0-0-----0-0-----0-0---0-0-0-|
|0---0-0-0---0h1-0---0-0-----0-0-|----0-0-----0-0-----0-0---0-0-0-|
|------------------------0h2-----|0-------------------------------|
|--------------------------------|--------0h2-----0-------0-------|
|--------------------------------|--------------------------------|

Ending:
 D(E)
|----0-0-0-0-0-0-----0-0-----0-0-|--0-0-0----0------0^-------------|
|----0-0-0-0-0-0-----0-0-----0-0-|--0-0-0----0------0^-------------|
|----0-0-0-0-0-0-----0-0-----0-0-|--0-0-0----0------0^-------------|
|--------0-----------------------|0--------0--------0^-------------|
|0h2-------------0h2-----0h2-----|------------------0^-------------|
|--------------------------------|--------------2b3-0^-------------|





Comments


Popular Donovan tabs & chords
Barabajagal Chords
Trudi Chords
Ballad Of Geraldine 1 Tabs
Riki Tiki Tavi Tabs
This Lovely Day Tabs
Barabajagal Ukulele
Jersey Thursday Ukulele
Sadness Ukulele
Universal Soldier Ukulele
Voyage Into The Golden Screen Ukulele


Song lyrics



↑ Back to top | Tablatures and chords are parodies/interpretations of the original songs. You may use it for private study, scholarship, research or language learning purposes only
© 2014 AZChords.com Contact us | Privacy policy | DMCA | Add/correct tabs | Request tabs | Top 50 tabs