» » »

Catch The Wind Tabs (ver.1)

Artists:  A B C D E F G H I J K L M N O P Q R S T U V W X Y Z # 

Catch The Wind Tabs (ver.1)

Donovan
Rating:
3/5 (4 votes)

Tabs too difficult? Try these video lessons and learn fast.
                Capo on 3rd fret (actual key Eb major) tuned below pitch
Chords:
C2:    x32013
Fadd9: xx3213
C:     x32010
F:     133211
G:     320003
G6:    3x2003
G7:    3x3003
Em:    022000
D7:    xx0212

I haven't tabbed every strum, just the bassline
and the chords between.

Intro and verse sequence:

  C2                       Fadd9       G  
e|----3---3-------3---3---|----3-----------3-------|
B|----1---1-------1---1---|----1-----------0-------|
G|----0---0---0---0---0---|----2-----------0-------|
D|------------------------|3-------2---0-----------|
A|3-----------------------|--------------------2---|
E|------------------------|------------------------|

  C2
e|----3---3-------3-------|----3---3-------3-------|
B|----1---1-------1-------|----1---1-------1-------|
G|----0---0-------0-------|----0---0-------0-------|
D|------------3-------2---|------------0h2---------|
A|3-----------------------|3-------------------3---|
E|------------------------|------------------------|
                                               In the

  C2                       Fadd9
e|----3---3-------3---3---|----3---3-------3---3---|
B|----1---1-------1---1---|----1---1-------1---1---|
G|0---0---0-------0---0---|----2---2-------2---2---|
D|2-----------------------|3-----------3-----------|
A|------------3-----------|------------------------|
E|------------------------|------------------------|
  chilly          hours..  minutes         of   un 

  C2          C            F
e|----3---3-------0---0---|----1---1-------1---1---|
B|----1---1-------1---1---|----1---1-------1---1---|
G|----0---0-------0---0---|----2---2-------2---2---|
D|------------------------|----3---3-------3---3---|
A|3-----------3-----------|------------------------|
E|------------------------|1-----------1-----------|
  certainty              I     want to be  

  C2                       Fadd9       G  
e|----3---3-------3---3---|----3-----------3-------|
B|----1---1-------1---1---|----1-----------0-------|
G|----0---0-------0---0---|----2-----------0-------|
D|------------2-----------|3-------2---0-------0---|
A|3-----------------------|--------------------2---|
E|------------------------|------------------------|
  in      the warm hold    of      yo..lov - in' 

  C2                       G  
e|----3---3-------3-------|----3---3-----3---3-----|
B|----1---1-------1-------|----0---0-----0---0-----|
G|----0---0-------0-------|----2---0-----0---0-----|
D|------------------------|----0---0---------------|
A|3-----------3-------2---|----------------0---2---|
E|------------------------|3-----------3-----------|
  mind.                                        To

  C2                       Fadd9
e|----3---3-------3---3---|----3---3-------3---3---|
B|----1---1-------1---1---|----1---1-------1---1---|
G|----0---0-------0---0---|----2---2-------2---2---|
D|------------------------|3-----------3-----------|
A|3-----------3-----------|------------------------|
E|------------------------|------------------------|
  feel you        all a -  round me        and  to 

  C2          C            F
e|----3---3-------0---0---|----1---1-------1---1---|
B|----1---1-------1---1---|----1---1-------1---1---|
G|----0---0-------0---0---|----2---2-------2---2---|
D|------------------------|----3---3-------3---3---|
A|3-----------3-----------|------------------------|
E|------------------------|1-----------1-----------|
  take your hand          along   the  sand  

  C2                       Fadd9       G  
e|----3---3-------3-------|----3-----------3-------|
B|----1---1-------1-------|----1-----------0-------|
G|----0---0-------0-------|----2-----------0-------|
D|------------------------|3-------2---0-------0---|
A|3-----------3-------3---|--------------------2---|
E|------------------------|------------------------|
  ah but I    may as  well try     and catch   the 

  C2
e|----3---3-------3-------|----3---3-------3-------|
B|----1---1-------1-------|----1---1-------1-------|
G|----0---0-------0-------|----0---0-------0-------|
D|------------3-------2---|------------0h2---------|
A|3-----------------------|3-------------------3---|
E|------------------------|------------------------|
  wind.                                        When...

Dee dee interlude:

  C2
e|----3---3-------3-------|----3---3---------------|
B|----1---1-------1-------|----1---1---------------|
G|----0---0-------0-------|----0---0---------------|
D|------------3-------2---|----------------0---2---|
A|3-----------------------|3-----------3-----------|
E|------------------------|------------------------|


  F                        Em
e|----1---1-------1---1---|----0---0-------0---0---|
B|----1---1-------1---1---|----0---0-------0---0---|
G|----2---2-------2---2---|----0---0-------0---0---|
D|----3---3-------3---3---|----2---2-------2---2---|
A|------------------------|------------------------|
E|1-----------1-----------|0-----------0-----------|
  Dee dee....


  F                        D7
e|----1---1-------1---1---|----2---2-------2---2---|
B|----1---1-------1---1---|----1---1-------1---1---|
G|----2---2-------2---2---|----2---2-------2---2---|
D|----3---3-------3---3---|0-----------0-----------|
A|------------------------|------------------------|
E|1-----------1-----------|------------------------|

  G           G6           G7          G6
e|----3---3-------3---3---|----3---3-------3---3---|
B|----0---0-------0---0---|----0---0-------0---0---|
G|----0---0-------0---0---|----0---0-------0---0---|
D|------------2-----------|3-----------2-----------|
A|------------------------|------------------------|
E|3-----------------------|------------------------|

Harmonica solo: (Eb diatonic) Use verse sequence.

Ending:
  C2                       Fadd9
e|----3---3-------3-------|----3---3-------3-------|
B|----1---1-------1-------|----1---1-------1-------|
G|0---0---0---0---0-------|----2---2---2---2-------|
D|--------------------2---|3-------------------3---|
A|------------------------|------------------------|
E|------------------------|------------------------|

  C2          C            F       C/e F 
e|----3-----------0-------|----1-----------1---1---|
B|----1-----------1-------|----1---1-------1---1---|
G|----0-----------0-------|----2---0-------2---2---|
D|2-------3---2-----------|----3---2-------3---3---|
A|--------------------3---|--------3---------------|
E|------------------------|1-------0---1-----------|

  C2                       Fadd9       G  
e|----3---3-------3-------|----3-----------3-------|
B|----1---1-------1-------|----1-----------0-------|
G|----0---0-------0-------|----2-----------0-------|
D|------------------------|3-------2---0-------0---|
A|3-----------3-------3---|--------------------2---|
E|------------------------|------------------------|
  ah but I    may as  well try     and catch   the 

  C2
e|----3---3-------3-------|------------------------|
B|----1---1-------1-------|------------------------|
G|----0---0-------0-------|------------------------|
D|------------3-------2---|2-----------------------|
A|3-----------------------|3-----------------------|
E|------------------------|------------------------|
  wind.                                        
            
Tabs too difficult? Try these video lessons and learn fast.


comments powered by Disqus
↑ Back to top | Tablatures and chords are parodies/interpretations of the original songs. You may use it for private study, scholarship, research or language learning purposes only