» » »

Donovan, Catch The Wind Tabs (ver.3)

Artists:  A B C D E F G H I J K L M N O P Q R S T U V W X Y Z # 

Catch The Wind Tabs (ver.3)

Donovan Tabs
 Rating:
4.3/5 (6 votes)
Catch The Wind lessons Tabs too difficult? Try these video lessons and learn fast
                Catch the Wind

Written by Donovan Leitch

___________________________________________________________________________________
Chords

Cadd9           x32033
F6/9            xx3233

Capo 3rd fret (sounding key Eb major).. Donovan’s guitar is slightly tuned down.
___________________________________________________________________________________
Intro:


  Cadd9                     F6/9                      Cadd9       F6/9
  :   .   .   :   .   .     :   .   .   :   .   .     :   .   .   :   .   .   
|-----2---2-------2---2---|-----2-----------2-------|-----2---2-------2-------|
|-----2---2-------2---2---|-----2-----------2-------|-----2---2-------2-------|
|-----0---0---0---0---0---|-----1-----------0-------|-----0---0-------0-------|
|-------------------------|-3-------2---0-----------|-------------3-------2---|
|-3-----------------------|---------------------2---|-3-----------------------|
|-------------------------|-------------------------|-------------------------|

  Cadd9
  :   .   .   :   .   .
|-----2---2-----------2---|
|-----2---2-----------2---|
|-----0---0-----------0---|
|-------------0-h-2-------|
|-3-----------------------|
|-------------------------|
                   In the chilly…


I’ve just written the bass pattern for the verses.. keep on strumming the chords..
there are some variations from one verse to the other.. I’ll let you figure them out.. 

  Cadd9         F6/9          Cadd9         F             Cadd9         F6/9
  : . . : . .   : . . : . .   : . . : . .   : . . : . .   : . . : . .   : . . : . .              
|-------------|-------------|-------------|-------------|-------------|-------------|
|-------------|-------------|-------------|-------------|-------------|-------------|
|-------------|-------------|-------------|-------------|-------------|-------------|
|-2-----------|-3-----3-----|-------------|-------------|-------2---2-|-3---2-0-----|
|-------3-----|-------------|-3-----3-----|-------------|-3-----------|-----------3-|
|-------------|-------------|-------------|-1-----1-----|-------------|-------------|

  Cadd9         G             Cadd9         F6/9             Cadd9      F
  : . . : . .   : . . : . .   : . . : . .   : . . : . .   : . . : . .   : . . : . . 
|-------------|-------------|-------------|-------------|-------------|-------------|
|-------------|-------------|-------------|-------------|-------------|-------------|
|-------------|-------------|-------------|-------------|-------------|-------------|
|-2-----------|-------------|-------2-----|-3-----3-----|-2-----------|-------------|
|-------3---2-|---------0-2-|-3-----------|-------------|-------3-----|-------------|
|-------------|-3-----3-----|-------------|-------------|-------------|-1-----1-----|



  Cadd9         F6/9          Cadd9 F6/9    Cadd9
  : . . : . .   : . . : . .   : . . : . .   : . . : . .   
|-------------|-------------|-------------|-------------|
|-------------|-------------|-------------|-------------|
|-------------|-------------|-------------|-------------|
|-------2---3-|-3---2-0-----|-------3---2-|------0h2----|
|-3-----------|-----------2-|-3-----------|-3-----------|
|-------------|-------------|-------------|-------------|

In the chilly hours and minutes of uncertainty, 
I want to be
In the warm hold of your loving mind
To feel you all around me and to take your hand, 
Along the sand
Ah, but I may as well try an’ catch the wind

When sundown pales the sky I want to hide a while, 
Behind your smile
An’ everywhere I’d look, your eyes I’d find
For me to love you now, would be the sweetest thing
T’would make me sing
Ah, but I may as well try an’ catch the wind

  Cadd9         F             Em            F             D/f#          G
  : . . : . .   : . . : . .   : . . : . .   : . . : . .   : . . : . .   : . . : . . 
|-------------|-------------|-------------|-------------|-------------|-------------|
|-------------|-------------|-------------|-------------|-------------|-------------|
|-------------|-------------|-------------|-------------|-------------|-------------|
|---------0-2-|-------------|-------------|-------------|-------------|-------0-----|
|-3-----3-----|-------------|-------------|-------------|-------------|-------------|
|-------------|-1-----1-----|-0-----0-----|-1-----1-----|-2-----2---2-|-3-----------|
               Diddy diddy……………
                             Cadd9
  : . . : . .   : . . : . .   : . . : . .
|-------------|-------------|-------------|
|-------------|-------------|-------------|
|-------------|-------------|-------------|
|-2-----3-----|-2-----------|-------------|
|-------------|-------2-----|-3-----3-----|
|-------------|-------------|-------------|
                       When  rain has……

Diddy diddy didididdeee
Diddy diddy didididdeee
Dididdeeeee

When rain has hung the leaves with tears, I want you near
To kill my fears
To help me to leave all my blues behind
For standing in your heart is where I want to be
An’ long to be
Ah, but I may as well try an’ catch the wind

  Cadd9         F6/9          Cadd9         F6/9          Cadd9
  : . . : . .   : . . : . .   : . . : . .   : . . : . .   : . .
|-------------|-------------|-------------|-------------|
|-------------|-------3-----|-------------|-------------|
|-0-----0---2-|-2-----2-----|-------------|-------------|
|-2-----2-----|-3---------3-|-2---3-2-----|-3---2-------|
|-------------|-------------|-----------3-|--------3----|
|-------------|-------------|-------------|-------------|
                                              Ah, but I may…
            
Submit corrections

comments powered by Disqus
↑ Back to top | Donovan Tabs for Catch The Wind. Lyrics for acoustic guitar and electric guitar. Tablatures and chords are parodies/interpretations of the original songs. You may use it for private study, scholarship, research or language learning purposes only