» » »

Catch The Wind Tabs (ver.2)

Artists:  A B C D E F G H I J K L M N O P Q R S T U V W X Y Z # 

Catch The Wind Tabs (ver.2)

Donovan
Rating:
5/5 (11 votes)

Hard to play? Try these video lessons and learn fast.
                                                 Catch the wind   
( Donovan)                               


guitar (Capo 3)

          INTRO                                                
     Q    E     E  Q       Q    E  E  Q       Q    E  E  Q     
E||-------3-----3--3----|-------3--3--3----|-------3--3-------|
B||-------1-----1--1----|-------1--1--1----|-------1--1-------|
G||-------0-----0--0----|--0----0--0--0----|-------2--2-------|
D||-------2-----2--2----|-------2--2--2----|--3----------2----|
A||--3------------------|------------------|------------------|
E||---------------------|------------------|------------------|


  Q    Q    Q       Q    E  E  E  E     Q    E  E  Q       Q    E  E  Q     
-------3---------|-------3--3--3--3--|-------3--3-------|-------3--3--3----|
-------1---------|-------1--1--1--1--|-------1--1-------|-------1--1--1----|
-------0---------|-------0--0--0--0--|-------0--0-------|-------0--0--0----|
--0--------------|-------2--2--2--2--|--3----------2----|-------2--2--2----|
------------2----|--3----------------|------------------|--3---------------|
-----------------|-------------------|------------------|------------------|


                        Verses 1 - 2 - 3                              
  E   E  Q    Q         Q                Q    Q       Q    Q    Q     
---------3----3----||--------------------3----3----|-------3----3----|
---------1----1----||--------------------1----1----|-------1----1----|
---------0----0----||*-------------------0----0----|-------0----0----|
--0h--2--2----2----||*-------------------2----2----|-------2----2----|
-------------------||---3--------------------------|--3--------------|
-------------------||------------------------------|-----------------|


  Q    E  E  Q       Q    Q    Q       Q    Q    Q       Q    Q    Q     
-------3--3--3----|-------3----3----|-------3----3----|-------3----3----|
-------1--1--1----|-------1----1----|-------1----1----|-------1----1----|
-------2--2--2----|-------2----2----|-------0----0----|-------0----0----|
--3---------------|--3--------------|-------2----2----|-------2----2----|
------------------|-----------------|--3--------------|--3--------------|
------------------|-----------------|-----------------|-----------------|


  Q    Q    Q       Q    Q    Q       Q    Q    Q       Q    Q    Q     
-------1----1----|-------1----1----|-------3----3----|-------3----3----|
-------1----1----|-------1----1----|-------1----1----|-------1----1----|
-------2----2----|-------2----2----|-------0----0----|-------0----0----|
-------3----3----|-------3----3----|-------2----2----|-------2----2----|
-----------------|-----------------|--3--------------|--3--------------|
--1--------------|--1--------------|-----------------|-----------------|


  Q    E  E  Q       Q    Q    Q       E   E  E  E  Q       Q    Q    Q     
-------3--3-------|-------3---------|---------3--3--3----|-------3----3----|
-------1--1-------|-------0---------|---------1--1--1----|-------1----1----|
-------2--2-------|-------0---------|---------0--0--0----|-------0----0----|
--3----------2----|--0--------------|--0h--2--2--2--2----|-------2----2----|
------------------|------------3----|--------------------|--3--------------|
------------------|-----------------|--------------------|-----------------|


  Q    E  E  E  E     Q    Q    Q       Q    Q    Q       Q    Q    Q     
-------1--1--1--1--|-----------------|-------3----3----|-------3----3----|
-------0--0--0--0--|-----------------|-------1----1----|-------1----1----|
-------0--0--0--0--|-----------------|-------0----0----|-------0----0----|
-------0--0--0--0--|-----------------|-------2----2----|-------2----2----|
-------------------|-------0----2----|--3--------------|--3--------------|
--3----------------|--3--------------|-----------------|-----------------|


  Q    E  E  Q       Q    Q    Q       Q    Q    Q       Q    Q    Q     
-------3--3--3----|-------3----3----|-------3----3----|-------3----3----|
-------1--1--1----|-------1----1----|-------1----1----|-------1----1----|
-------2--2--2----|-------2----2----|-------0----0----|-------0----0----|
--3---------------|--3--------------|-------2----2----|-------2----2----|
------------------|-----------------|--3--------------|--3--------------|
------------------|-----------------|-----------------|-----------------|


  Q    Q    Q       Q    Q    Q       Q    Q    Q       Q    Q    Q     
-------1----1----|-------1----1----|-------3----3----|-------3----3----|
-------1----1----|-------1----1----|-------1----1----|-------1----1----|
-------2----2----|-------2----2----|-------0----0----|-------0----0----|
-------3----3----|-------3----3----|-------2----2----|-------2----2----|
-----------------|-----------------|--3--------------|--3--------------|
--1--------------|--1--------------|-----------------|-----------------|


  Q    E  E  Q       Q    Q    Q       Q    E  E  E  E     Q    E  E  Q     
-------3--3-------|-------3---------|-------3--3--3--3--|-------3--3-------|
-------1--1-------|-------1---------|-------1--1--1--1--|-------1--1-------|
-------2--2-------|-------0---------|-------0--0--0--0--|-------0--0-------|
--3----------2----|--0--------------|-------2--2--2--2--|--3----------2----|
------------------|------------2----|--3----------------|------------------|
------------------|-----------------|-------------------|------------------|


                                            DEE DEE DEE ...            
  Q    E  E  Q       E   E  Q    Q     3x   Q               Q    Q     
-------3--3--3----|---------3----3-----||-------------------1----1----|
-------1--1--1----|---------1----1-----||-------------------1----1----|
-------0--0--0----|---------0----0----*||*------------------2----2----|
-------2--2--2----|--0h--2--2----2----*||*------------------3----3----|
--3---------------|--------------------||-----------------------------|
------------------|--------------------||---1-------------------------|


  Q    Q    Q       Q    Q    Q       Q    Q    Q     
-------1----1----|-------0----0----|-------0----0----|
-------1----1----|-------0----0----|-------0----0----|
-------2----2----|-------0----0----|-------0----0----|
-------3----3----|-----------------|-----------------|
-----------------|-----------------|-----------------|
--1--------------|--0--------------|--0--------------|


  DEE DEE DEE ...                                                
  Q               Q    Q       Q    Q    Q       Q    Q    Q     
------------------1----1----|-------1----1----|-------2----2----|
------------------1----1----|-------1----1----|-------1----1----|
------------------2----2----|-------2----2----|-------2----2----|
------------------3----3----|-------3----3----|-------0----0----|
----------------------------|-----------------|-----------------|
--1-------------------------|--1--------------|--2--------------|


  Q    Q    Q       Q    Q    Q       Q    Q    Q       Q    Q    Q     
-------2----2----|-------1----1----|-------1----1----|-------1----1----|
-------1----1----|-------0----0----|-------0----0----|-------0----0----|
-------2----2----|-------0----0----|-------0----0----|-------0----0----|
-------0----0----|-----------------|--2--------------|--3--------------|
-----------------|-----------------|-----------------|-----------------|
--2--------------|--3--------------|-----------------|-----------------|


  Q    Q    Q       Q    Q    Q       Q    Q    Q       Q    E  E  Q     
-------1----1----|-------3----3----|-------3----3----|-------3--3--3----|
-------0----0----|-------1----1----|-------1----1----|-------1--1--1----|
-------0----0----|-------0----0----|-------0----0----|-------2--2--2----|
--2--------------|-------2----2----|-------2----2----|--3---------------|
-----------------|--3--------------|--3--------------|------------------|
-----------------|-----------------|-----------------|------------------|


  Q    Q    Q       Q    Q    Q       Q    Q    Q       Q    Q    Q     
-------3----3----|-------3----3----|-------3----3----|-------1----1----|
-------1----1----|-------1----1----|-------1----1----|-------1----1----|
-------2----2----|-------0----0----|-------0----0----|-------2----2----|
--3--------------|-------2----2----|-------2----2----|-------3----3----|
-----------------|--3--------------|--3--------------|-----------------|
-----------------|-----------------|-----------------|--1--------------|


  Q    Q    Q       Q    Q    Q       Q    Q    Q       Q    E  E  Q     
-------1----1----|-------3----3----|-------3----3----|-------3--3-------|
-------1----1----|-------1----1----|-------1----1----|-------1--1-------|
-------2----2----|-------0----0----|-------0----0----|-------2--2-------|
-------3----3----|-------2----2----|-------2----2----|--3----------2----|
-----------------|--3--------------|--3--------------|------------------|
--1--------------|-----------------|-----------------|------------------|


  Q    Q    Q       E   E  E  E  Q       Q    Q    Q       Q    E  E  E  E   
-------3---------|---------3--3--3----|-------3----3----|-------1--1--1--1--|
-------0---------|---------1--1--1----|-------1----1----|-------0--0--0--0--|
-------0---------|---------0--0--0----|-------0----0----|-------0--0--0--0--|
--0--------------|--0h--2--2--2--2----|-------2----2----|-------0--0--0--0--|
------------3----|--------------------|--3--------------|-------------------|
-----------------|--------------------|-----------------|--3----------------|


  Q    Q    Q       Q    Q    Q       Q    Q    Q       Q    E  E  Q     
-----------------|-------3----3----|-------3----3----|-------3--3--3----|
-----------------|-------1----1----|-------1----1----|-------1--1--1----|
-----------------|-------0----0----|-------0----0----|-------2--2--2----|
-----------------|-------2----2----|-------2----2----|--3---------------|
-------0----2----|--3--------------|--3--------------|------------------|
--3--------------|-----------------|-----------------|------------------|


  Q    Q    Q       Q    Q    Q       Q    Q    Q       Q    Q    Q     
-------3----3----|-------3----3----|-------3----3----|-------1----1----|
-------1----1----|-------1----1----|-------1----1----|-------1----1----|
-------2----2----|-------0----0----|-------0----0----|-------2----2----|
--3--------------|-------2----2----|-------2----2----|-------3----3----|
-----------------|--3--------------|--3--------------|-----------------|
-----------------|-----------------|-----------------|--1--------------|


  Q    Q    Q       Q    Q    Q       Q    Q    Q       Q    E  E  Q     
-------1----1----|-------3----3----|-------3----3----|-------3--3-------|
-------1----1----|-------1----1----|-------1----1----|-------1--1-------|
-------2----2----|-------0----0----|-------0----0----|-------2--2-------|
-------3----3----|-------2----2----|-------2----2----|--3----------2----|
-----------------|--3--------------|--3--------------|------------------|
--1--------------|-----------------|-----------------|------------------|


  Q    Q    Q       Q    E  E  E  E     Q    E  E  Q       Q    E  E  Q     
-------3---------|-------3--3--3--3--|-------3--3-------|-------3--3--3----|
-------1---------|-------1--1--1--1--|-------1--1-------|-------1--1--1----|
-------0---------|-------0--0--0--0--|-------0--0-------|-------0--0--0----|
--0--------------|-------2--2--2--2--|--3----------2----|-------2--2--2----|
------------2----|--3----------------|------------------|--3---------------|
-----------------|-------------------|------------------|------------------|


  E   E  Q    Q         H.             
---------3----3-----||--3------------||
---------1----1-----||--1------------||
---------0----0----*||--0------------||
--0h--2--2----2----*||--2------------||
--------------------||--3------------||
--------------------||---------------||




Duration Legend
---------------
W - whole
H - half
Q - quarter
E - 8th
S - 16th
T - 32nd
X - 64th
. - note dotted
|-n-|  - n-tuplets


Tablature Legend
----------------
L - tied note
x - dead note
g - grace note
(n) - ghost note
> - accentuded note
NH - natural harmonic
AH - artificial harmonic
TH - tapped harmonic
SH - semi harmonic
PH - pitch harmonic
h - hammer on
p - pull off
b - bend
br - bendRelease
pb - preBend
pbr - preBendRelease
brb - bendReleaseBend
\n/ - tremolo bar dip
\n - tremolo bar dive
-/n - tremolo bar Release up
/n\ - tremolo bar inverted dip
/n - tremolo bar return
-\n - tremolo bar Release down
S - shift slide
s - legato slide
/ -  slide into from below or out of upwards
\ -  slide into from above or out of downwards
~ - vibrato
W - wide vibrato
tr - trill
TP - tremolo picking
T - tapping
S - slap
P - pop
< - fade in
^ - brush up
v - brush down
            
Hard to play? Try these video lessons and learn fast. | Correct




comments powered by Disqus
↑ Back to top | Tablatures and chords are parodies/interpretations of the original songs. You may use it for private study, scholarship, research or language learning purposes only