» » »

Donavon Frankenreiter, Fool Tabs (ver.2)

Artists:  A B C D E F G H I J K L M N O P Q R S T U V W X Y Z # 

Fool Tabs (ver.2)

Donavon Frankenreiter Tabs
 Rating:
4/5 (4 votes)
Fool lessons Tabs too difficult? Try these video lessons and learn fast
                This is my first ever tab so sorry if it sucks… I saw another tab of this song which 
quite sound right to me but it helped me figure out this tab…

Standard Tuning

Intro:                                    *bend quite hard or slide up to 5
e|--------------------------------------------------------|
B|----------------------------------------*---------------|
G|---------------------------------------4b-2-------------|
D|-4-4-4p2-----4-4-4p2-----4-4-4p2------------------------|
A|---------4-----------4-----------4----------------------|
E|--------------------------------------------------------|

e|--------------------------------------------------------|
B|--------------------------------------------------------|
G|---------------------------------------4b5-2-4-2--------|
D|-4-4-4p2-----4-4-4p2-----4-4-4p2------------------------|
A|---------4-----------4-----------4----------------------|
E|--------------------------------------------------------|

Verse:
Just play around with the same stuff from the intro.
e|----------------------------------------------------------------------|
B|----------------------------------------------------------------------|
G|------------------------------------------4b5-2—-4b5-2----2-----------|
D|-4-4-4p2-----4-4-4p2-----4-4-4p2----(x2)-----------------4-4-2---2----|
A|---------4-----------4-----------4-----------------------------4------|
E|----------------------------------------------------------------------|
“Ooh ooh baby…”                        |_not exact but you get it_|

Guitar stops for a while in the middle

Then just play around with
e|------------------------------------------|
B|------------------------------------------|
G|------------------------------------------|
D|-4-4-4p2-----4-4-4p2-----4-4-4p2----------|
A|---------4-----------4-----------4--------|
E|------------------------------------------|

Chorus:
e|--2--0---------------------------|
B|-------2-------------------------|
G|----------4—2b-------------------|
D|------------------4--------------|
A|---------------------------------|
E|---------------------------------|
"I ain't done nothin' to you”

Not sure of the solos yet but I think they’re made up of notes around the same area… you 
just improvise with a few hard bends here and there…

------------------
h - hammer-on
p - pull-off
/ - slide up
            
Submit corrections

comments powered by Disqus
↑ Back to top | Donavon Frankenreiter Tabs for Fool. Lyrics for acoustic guitar and electric guitar. Tablatures and chords are parodies/interpretations of the original songs. You may use it for private study, scholarship, research or language learning purposes only