» » »

Fool Tabs (ver.3)

Artists:  A B C D E F G H I J K L M N O P Q R S T U V W X Y Z # 

Fool Tabs (ver.3)

Donavon Frankenreiter
Rating:
4/5 (1 vote)

Hard to play? Try these video lessons and learn fast.
                -------------------------------------------------------------------------------
                             FOOL - Donavon Frankenreiter
-------------------------------------------------------------------------------
Alright, this is a pretty simple song, but for some reason I can't find many accurate 
Probably that not too many people know who Donavon Frankenreiter is. It's all based on the 
position of the G Minor Pentatonic scale, so it's easy to find by ear if you have to.

Tuning: Standard - EADGBe

This riff plays pretty much the entire song, except the chorus and solo.
e|----------------------------------------|
B|----------------------------------------|
G|---------------------------------5b7p3--|
D|-5-5-5p3----5-5-5p3---5-5-5p3-----------|
A|---------5----------5---------5---------|
E|----------------------------------------|

Then the chorus is

e|-----------------|
B|-6b7-3-----------|
G|-------5-3-------|
D|-----------5-5---|
A|-----------------|
E|-----------------|
(This comes in at the ain't in "I ain't done nothin' to you, then it goes right back 
the main riff.


| /  slide up
| \  slide down
| h  hammer-on
| p  pull-off
| ~  vibrato
| +  harmonic
| x  Mute note
===============================================================================
            
Hard to play? Try these video lessons and learn fast. | Correct




comments powered by Disqus
↑ Back to top | Tablatures and chords are parodies/interpretations of the original songs. You may use it for private study, scholarship, research or language learning purposes only