» » »

Donavon Frankenreiter, Free Bass tabs (ver.1)

Artists:  A B C D E F G H I J K L M N O P Q R S T U V W X Y Z # 

Free Bass tabs (ver.1)

Donavon Frankenreiter Tabs
Rating:
5/5 (1 vote)
Free lessons Tabs too difficult? Try these video lessons and learn fast
                G---4---------4----------9----------9---------|
D-5---5-4-4-2---2-----10---10-9-9-7---7-------| x2 for verse
A-----------------5-5-------------------10-10-|
E---------------------------------------------|


G-------5----------------------------------|
D-5-5-3---3--------------------------------| x4 for chorus
A-----------3-3-3-3------------------------|
E------------------------------------------|


G------------------------------------------|
D-5-5/2-2--------3--5/2-2------------------| x1 for bridge
A---------3-3/5-5---------3-3/2-2/0--------|
E------------------------------------------|

verse
chorus
verse
bridge
verse
chorus (end on a g note)
            

comments powered by Disqus
↑ Back to top | Donavon Frankenreiter Bass for Free. Lyrics for acoustic guitar and electric guitar. Tablatures and chords are parodies/interpretations of the original songs. You may use it for private study, scholarship, research or language learning purposes only