» » »

No Dreams Breed In Breathless Sleep Tabs (ver.2)

Artists:  A B C D E F G H I J K L M N O P Q R S T U V W X Y Z # 

No Dreams Breed In Breathless Sleep Tabs (ver.2)

Dissection
Rating:
5/5 (3 votes)

Hard to play? Try these video lessons and learn fast.
                Dissection - No Dreams Breed In Breathless Sleep - Standard {E A D G B e} Please Rate!

e|--------5-----6-5-------------5-----6-5---------|
B|----6-8-----------8-6-----6-8-----------8-6-----|
G|------------7---------------------7-------------|
D|----------7-------------8-------7-------------8-|
A|----------------------8---------------------8---|
E|------------------------------------------------|

e|------------------------------5-6-----10-----------------------------------|
B|------------------5-6-----6-8------------11-10-6-----6-5---5---------------|
G|----9-7-6-----6-7-------7--------------------------7-----7-------7-6-7-----|
D|------------7---------7-------------5------------7-------------7-------7---|
A|----------7-----------------------5--------------------------7-----------5-|
E|---------------------------------------------------------------------------|

e|-------------------------10-13-------13-12-10-12-----9-10-12-13---------5-6-|
B|------5-6-11-------11-13--------------------------------------------6-8-----|
G|----5-------------------------------------------------------------7---------|
D|----------------12----------------12---------------7------------7-----------|
A|-------------10----------------12----------------7--------------------------|
E|----------------------------------------------------------------------------|

e|--------10------------------------------------|---------------------------|
B|-----------11-10-6-----6-5---5-------5--------|---------------------------|
G|---------------------7-----7-------6---6-7----|-------6-----3-------------|
D|------5------------7-------------7---------7--|-7---------7---5-4-4-------|
A|----5--------------------------7-------------5|---8-7---7-----------4---4-|
E|----------------------------------------------|-----------------------2---|

e|------------------------------5-6-----10-------------------------------------|
B|--------------------------6-8------------11-10-6-----6-5---5-------5---------|
G|------3-6-----3-4-6-7---7--------------------------7-----7-------6---6-7-----|
D|----4-------7---------7-------------5------------7-------------7---------7---|
A|----------7-----------------------5--------------------------7-------------5-|
E|-----------------------------------------------------------------------------|

e|--------5-----6-5-------------5-----6-5---------|
B|----6-8-----------8-6-----6-8-----------8-6-----|
G|------------7---------------------7-------------|
D|----------7-------------8-------7-------------8-|
A|----------------------8---------------------8---|
E|------------------------------------------------|

e|------------------------------5-6-----10-------------------------------------|
B|------------------5-6-----6-8------------11-10-6-----6-5---5-----5-----------|
G|----9-7-6-----6-7-------7--------------------------7-----7---------6---7-----|
D|------------7---------7-------------5------------7-------------7-----7---7---|
A|----------7-----------------------5--------------------------7-------------5-|
E|-----------------------------------------------------------------------------|
            
Hard to play? Try these video lessons and learn fast. | Correct




comments powered by Disqus
↑ Back to top | Tablatures and chords are parodies/interpretations of the original songs. You may use it for private study, scholarship, research or language learning purposes only