» » »

Dissection, No Dreams Breed In Breathless Sleep Tabs (ver.1)

Artists:  A B C D E F G H I J K L M N O P Q R S T U V W X Y Z # 

No Dreams Breed In Breathless Sleep Tabs (ver.1)

Dissection Tabs
 Rating:
3.6/5 (5 votes)
No Dreams Breed In Breathless Sleep lessons Tabs too difficult? Try these video lessons and learn fast
1
                -----------------------------------------------------------------------------
-----------------------------------------------------------------------------

This is a great song, but is a bit hard to play with a guitar.
In the Riff E for example, try to transfer the chord a little 
below changing it for this one, of up down (3 x 5 7 x 6) 
so that one can play without problem.
The song is one or two lower octaves, but in my guitar, it sounds great!  
I hope you like this tab, my first tab.
I am sure that it contains errors, so please, send me the corrections 
that can make it.
Thanks to Steven "King" Tan, without his tab, this one never 
exist.
Forgive my english :)

Nota:
Este es un temazo, pero es un cacho díficil de tocar con la guitarra.
En el Riff E, por ejemplo, traten de trasladar el acorde un poco más abajo
reeplazándolo por este otro, de arriba para abajo (3 x 5 7 x 6) para que se 
pueda tocar si problemas.
Espero que les guste esta tablatura, mi primer tabla.
La canción esta una o dos octavas mas abajo, pero en mi guitarra suena bien asi.
Estoy seguro de que tiene errores, asi que por favor, mandenme las 
correcciones que puedan hacerle.
Mil gracias a Steven "King" Tan, sin su tablatura, esta no existiría
Forgive my Spanish :)

Gtr 1 
Tuning = E [E,A,D,G,B,e]

Riff A (Twice)		 Riff B				
|-----5-----6-5---------|---------------------------5|
|-6-8-----------8-6-----|---------------5-6-----6-8--|
|---------7-------------|-9-7-6-----6-7-------7------|
|-------7-------------8-|---------7---------7--------|
|-----5-------------8---|-------7---------5----------|
|-----------------6-----|-----5----------------------|

Riff C					Riff D
|-6-----10-------------------------|------------|
|----------11-10-6-----6-5---5-----|------------|
|--------------------7-----7-------|-7-6-7------|
|-----5------------7-------------7-|-------7----|
|---5------------5-------------7---|-----5---5--|
|-3--------------------------5-----|------------|

Riff E
        /--**--\
|----------------------10-13-------13-12-10-----------------------5|
|---5-6-11-------11-13----------------------5---------5-6-----6-8--|
|-5-----------------------------------------------6-7-------7------|
|-------------12----------------12--------------7---------7--------|
|----------10----------------12---------------7---------5----------|
|--------3----------------10----------------5----------------------|
NOTE: Change the marked chord for this other, 3 x 5 7 x 6.


Repeat Riff C

Riff F

|------------|
|--5---------|
|6---6-7-----|
|--------7---|
|------5---5-|
|------------|

Riff G

|-------------------------------------------------------|
|---------------------------------------------------5-6-|
|-------6-----3---------------3-6-----3-4-6-7-----7-----|
|-7---------7---5-4-4-------4-------7---------7---------|
|---8-7---7-----------4---4-------7---------5---5-------|
|-------5-----------2---2-------5-----------------------|

Repeat Riff C
Repeat Riff F
--More Faster Now--
Repeat Riff A (Twice)
Repeat Riff B
Repeat Riff C

End like This

|----------------|
|-5--------------|
|---6---7--------|
|-----7---7------|
|-------5---5----|
|----------------|

Goodbye to all!
Un abrazo para todos!
            
Submit corrections

comments powered by Disqus
↑ Back to top | Dissection Tabs for No Dreams Breed In Breathless Sleep. Lyrics for acoustic guitar and electric guitar. 1 Tablatures and chords are parodies/interpretations of the original songs. You may use it for private study, scholarship, research or language learning purposes only