>
 >
Night's Blood

Night's Blood Guitar Tabs

Dissection - Night's Blood chords, tabs, tablatures, lyrics

Guitar lessons | Add/correct | Request | Top 50 tabs Artists:  A B C D E F G H I J K L M N O P Q R S T U V W X Y Z 0-9

Night's Blood Guitar Tabs – Dissection

CD, Sheet music, Poster

Do you like Night's Blood? Share with your friends now
Bass TabsTabsTabs v2
Sounds like this, even if Dissection's sound can't be exactly reproduced...



Intro
|-------------|
|-------------|
|-------------|
|-5-4-5-5-4-5-|
|-3-2-3-3-2-3-|
|-------------|


Riff 1
|------------------------------------------------------------------------------------------|
|------------------------------------------------------------------------------------------|
|------------------------------------------------------------------------------------------|
|-----------------5-4-5-----------------5-4-5-----------------5-4-5------------5-4-5-5-4-5-|
|-2----2----2-----3-2-3-2----2----2-----3-2-3-2----2----2-----3-2-3-2----2-----3-2-3-3-2-3-|
|-0-0000-0000-000-------0-0000-0000-000-------0-0000-0000-000-------0-0000-000-------------|


Riff 2
|-------------------------------------------|-------------------------------------------|
|-------------------------------------------|-------------------------------------------|
|-12'-----11'-12'-9'---7'-9'---4'-5'-2'-----|-12'-----11'-12'-9'---7'-9'---12'--11'-----|
|-------------------------------------------|-------------------------------------------|
|-------------------------------------------|-------------------------------------------|
|-------------------------------------------|-------------------------------------------|
|
|-------------------------------------------|-------------------------------------------|
|-------------------------------------------|-------------------------------------------|
|-------------------------------------------|-------------------------------------------|
|-5----5----5----5-5-5-2----2---------------|-5----5----5----5-5-5-2----2-----55554444--|
|-7-7777-7777-7777-7-7-3-3333-3333----3-----|-7-7777-7777-7777-7-7-3-3333-333-----------|
|--------------------------------5-5555-555-|-------------------------------------------|



|-------------------------------------------|-------------------------------------------|
|-------------------------------------------|-------------------------------------------|
|-12'-----11'-12'-9'---7'-9'---4'-5'-2'-----|-12'-----11'-12'-9'---7'-9'---12'--11'-----|
|-------------------------------------------|-------------------------------------------|
|-------------------------------------------|-------------------------------------------|
|-------------------------------------------|-------------------------------------------|
|
|-------------------------------------------|-------------------------------------------|
|-------------------------------------------|-------------------------------------------|
|-------------------------------------------|-------------------------------------------|
|-5----5----5----5-5-5-2----2---------------|-5----5----5----5-5-5-2----2---------------|
|-7-7777-7777-7777-7-7-3-3333-3333----3-----|-7-7777-7777-7777-7-7-3-3333-333-88888888--|
|--------------------------------5-5555-555-|-------------------------------------------|


Riff 3
|----------------------------------------------------------|
|----------------------------------------------------------|
|----------------------------------------------------------|
|----------------------------------------------------------|
|-3'-5'-6'-3'-6-5-3--3-3-3------7h8-----------9h10p9---5h7-|
|--------------------1-1-1--0-0-----0-0-6-0-0--------0-----|


|----------------------------------------------------------|
|----------------------------------------------------------|
|----------------------------------------------------------|
|-------------------------------9s10---7s9---9s10----------|
|-3'-5'-6'-3'-6-5-3--3-3-3------7s8----5s7---7s8----3------|
|--------------------1-1-1--0-0------0-----0------0---3-2--|




Riff 4
|-----------------------------------------------------------------------------------------|
|-----------------------------------------------------------------------------------------|
|----------------12121212----------------------------------------12121212-----------------|
|-----------9999-----------------------------8888-----------9999-----------------------8--|
|------7777--------------------7777-10101010-----------7777------------------------10--6--|
|-0000--------------------0000--------------------0000--------------------00000000-8------|
 

|------------------------------------------------------------------------------|
|------------------------------------------------------------------------------|
|----------5555-8888---------------4444----------5555-8888---------------------|
|-----------------------------6666-------------------------------------4-------|
|-33333333-----------33333333-----------33333333-----------33333333-6--2-------|
|-------------------------------------------------------------------4----------|


Riff 5
|-------------------------------------------------------------------------------------------|
|-------------------------------------------------------------------------------------------|
|-------------------------------------------------------------------------------------------|
|-----------9-7h9p7------7-------------9-7h9p7--10--9------------9-7h9p7------7-------------|
|---10p9h10---------10-9---7---10p9h10-------------------10p9h10---------10-9---7-3-3-3-5-7-|
|-0--------------------------0------------------------0---------------------------1-1-1-3-5-|
|
|--------------------------------------------------------------------------------------------|
|--------------------------------------------------------------------------------------------|
|--------------------------------------------------------------------------------------------|
|-------9-----7-----5--------------9-----7-----10-----------9-----7-----5--------------------|
|-2-----7-----5-----3--------2-----7-----5-----8------2-----7-----5-----3----------3-3-3-5-7-|
|-0--------------------------O------------------------0----------------------------1-1-1-3-5-|


Riff 6
|--------------------------------------------------------------|
|--------------------------------------------------------------|
|--------------------------------------------------------------|
|---------9--------------------------------9-------------------|
|---------7----9-10-12-10h12p10-9----------7------5-6-5h6p5----|
|-0-0-0-0----7---------------------0-0-0-0-----s8-----------8--|


|------------------------------------------------|
|------------------7-----------------------------|
|--------------------7---------------------------|
|---------9------9------9-----9----------5----8--|
|---------7----9--------7-----7----------3----6--|
|-0-0-0-0----7----------0-0-0-0---0-0-000--000---|


Riff 7
|----------------------------------|
|----------------------------------|
|----------------------------------|
|-(9)'-----------------------------|
|-(7)'----10'--7'-------7'---------|
|--0'---------------6'--------5'---|


Riff 8
|----------------------------------|
|----------------------------------|
|----------------------------------|
|----------------------------------|
|-3'------6'---3'------------------|
|-------------------2'-----1'------|



Riff 9 (acoustic)
|----------------------------------------|-----------------------------------|
|----------------------------------------|-----------------------------------|
|-------------9--------------------------|-----------------------------------|
|-----9---------9-----0------------------|-----9---------9-----7---10---9----|
|---7---7---7-------7---9-12---9h10p9----|---7---7---7-------7---7-----------|
|-0-------0-------8----------8--------10-|-0-------0-------8----------8---8--|


|----------------------------------------|--------------------------------------------|
|----------------------------------------|--------------------------------------------|
|-------------9--------------------------|--------------------------------------------|
|-----9---------9-----0------------------|-----9---------9-----0---7------------------|
|---7---7---7-------7---9-12---9h10p9----|---7---7---7-------7---7-----12-10h12p10-9--|
|-0-------0-------8----------8--------10-|-0-------0-------8---------8----------------|


Riff 10
|--------------------------------------------------------------------------|
|--------------------------------------------------------------------------|
|--------------------------------------------------------------------------|
|---------9-9-9-9---------14-14-14-14---------0-0--------------------------|
|---------7-7-7-7---------14-14-14-14-----7-7-----9-9-12-12-9-9-9h10p9-----|
|-0-0-0-0---------0-0-0-0-------------8-8------------------------------10--|

|--------------------------------------------------------------------------|
|--------------------------------------------------------------------------|
|--------------------------------------------------------------------------|
|---------9-9-9-9---------14-14-14-14---------7-7-----10-10-----9-9--------|
|---------7-7-7-7---------14-14-14-14-----7-7------------------------------|
|-0-0-0-0---------0-0-0-0-------------8-8---------8-8-------8-8------------|


|--------------------------------------------------------------------------|
|--------------------------------------------------------------------------|
|--------------------------------------------------------------------------|
|---------9-9-9-9---------14-14-14-14---------0-0--------------------------|
|---------7-7-7-7---------14-14-14-14-----7-7-----9-9-12-12-9-9-9h10p9-----|
|-0-0-0-0---------0-0-0-0-------------8-8------------------------------10--|

|--------------------------------------------------------------------------|
|--------------------------------------------------------------------------|
|--------------------------------------------------------------------------|
|---------9-9-9-9---------14-14-14-14--------------------------------------|
|---------7-7-7-7---------14-14-14-14-----7---12--10h1210-9----------------|
|-0-0-0-0---------0-0-0-0-------------8-8----------------------------------|


Riff 11
|----------------------------------------------------------------------------|
|----------------------------------------------------------------------------|
|----------------------------------------------------------------------------|
|-9---9---10---7---9---9---10---12---9----9----10----9----7---7----9s10-10p7-|
|---7---7----7---7---7---7----7----7---10---10----10---10---9---9------------|
|----------------------------------------------------------------------------|
|
|----------------------------------------------------------------------------|
|----------------------------------------------------------------------------|
|----------------------------------------------------------------------------|
|------------------------------------------------------------------5---------|
|-2-------------------------------------5-----------------4--------3---------|
|-0-------------------------------------3-----------------2------------------|


|----------------------------------------------------------------------------|
|----------------------------------------------------------------------------|
|----------------------------------------------------------------------------|
|-9---9---10---7---9---9---10---12---9----9----10----9----7---7----9s10-10p7-|
|---7---7----7---7---7---7----7----7---10---10----10---10---9---9------------|
|----------------------------------------------------------------------------|
|
|----------------------------------------------------------------------------|
|----------------------------------------------------------------------------|
|----------------------------------------------------------------------------|
|---------------------------------------7-----------------2--------5---------|
|-2-------------------------------------5-----------------0--------3---------|
|-0--------------------------------------------------------------------------|





Comments


Popular Dissection tabs & chords
Black Dragon Bass Tabs
Crimson Towers Tabs
Elisabeth Bathori Tabs
Elizabeth Bathory Live Tabs
In The Cold Winds Of Nowhere Tabs
Into Infinite Obscurity Tabs
Shadows Over A Lost Kingdom Tabs
Soulreaper Tabs
The Somberlain Tabs
Where Dead Angels Lie Tabs


Song lyrics



↑ Back to top | Tablatures and chords are parodies/interpretations of the original songs. You may use it for private study, scholarship, research or language learning purposes only
© 2014 AZChords.com Contact us | Privacy policy | DMCA | Add/correct tabs | Request tabs | Top 50 tabs