>
 >
At The Fathomless Depths 1

At The Fathomless Depths 1 Guitar Tabs

Dissection - At The Fathomless Depths 1 chords, tabs, tablatures, lyrics

Guitar lessons | Add/correct | Request | Top 50 tabs Artists:  A B C D E F G H I J K L M N O P Q R S T U V W X Y Z 0-9

At The Fathomless Depths 1 Guitar Tabs – Dissection

CD, Sheet music, Poster

Do you like At The Fathomless Depths 1? Share with your friends now
TabsTabs v2
Dissection - At The Fathomless Depths - Standard {E A D G B e} - Please Rate!

Intro Gtr1 + Gtr2 - X2                      Gtr2 End Of Intro
e|----0----6----0----8----0----6----0----7  e|----------------|
B|----0----6----0----8----0----6----0----7  B|----------------|
G|----0----6----0----8----0----6----0----7  G|----------------|
D|----2----8----2----10---2----8----2----9  D|----2-----------|
A|----2----8----2----10---2----8----2----9  A|------3-2-------|
E|----0----6----0----8----0----6----0----7  E|----------3-2-0-|

Main Riff Gtr1 - X2
e|----0----6----0----8----0----6----0----7-|
B|----0----6----0----8----0----6----0----7-|
G|----0----6----0----8----0----6----0----7-|
D|----2----8----2----10---2----8----2----9-|
A|----2----8----2----10---2----8----2----9-|
E|----0----6----0----8----0----6----0----7-|

Main Riff Gtr2 X2
e|------------------------------------------|
B|------------------------------------------|
G|------------------------------------------|
D|---------------9-8------------------------|
A|----7-6-7-9-10-----9-9-10-7-7-6-----6-7-9-|
E|--------------------------------8-7-------|

e|------------------------------------------|
B|------------------------------------------|
G|------------------------------------------|
D|---------------9-8------------------------|
A|----7-6-7-9-10-----9-9-10-7-7-6-----------|
E|--------------------------------8-7-5-3-2-|

Harmony Gtr1 - X1
e|----------------------------------------|
B|----------------------------------------|
G|--------------7-6-----------------------|
D|----5-4-5-7-9-----8-8-9-5-5-4-----4-5-7-|
A|------------------------------6-7-------|
E|----------------------------------------|

e|----------------------------------------|
B|----------------------------------------|
G|--------------7-6-----------------------|
D|----5-4-5-7-9-----8-8-9-5-5-4-----------|
A|------------------------------7-6-3-2-0-|
E|----------------------------------------|

Harmony Gtr2 - X1
e|------------------------------------------|
B|------------------------------------------|
G|------------------------------------------|
D|---------------9-8------------------------|
A|----7-6-7-9-10-----9-9-10-7-7-6-----6-7-9-|
E|--------------------------------8-7-------|

e|------------------------------------------|
B|------------------------------------------|
G|------------------------------------------|
D|---------------9-8------------------------|
A|----7-6-7-9-10-----9-9-10-7-7-6-----------|
E|--------------------------------8-7-5-3-2-|

Main Riff Gtr1 - X2
e|----0----6----0----8----0----6----0----7-|
B|----0----6----0----8----0----6----0----7-|
G|----0----6----0----8----0----6----0----7-|
D|----2----8----2----10---2----8----2----9-|
A|----2----8----2----10---2----8----2----9-|
E|----0----6----0----8----0----6----0----7-|

Main Riff Gtr2 X2
e|------------------------------------------|
B|------------------------------------------|
G|------------------------------------------|
D|---------------9-8------------------------|
A|----7-6-7-9-10-----9-9-10-7-7-6-----6-7-9-|
E|--------------------------------8-7-------|

e|------------------------------------------|
B|------------------------------------------|
G|------------------------------------------|
D|---------------9-8------------------------|
A|----7-6-7-9-10-----9-9-10-7-7-6-----------|
E|--------------------------------8-7-5-3-2-|

Harmony Gtr1 - X2
e|----------------------------------------|
B|----------------------------------------|
G|--------------7-6-----------------------|
D|----5-4-5-7-9-----8-8-9-5-5-4-----4-5-7-|
A|------------------------------6-7-------|
E|----------------------------------------|

e|----------------------------------------|
B|----------------------------------------|
G|--------------7-6-----------------------|
D|----5-4-5-7-9-----8-8-9-5-5-4-----------|
A|------------------------------7-6-3-2-0-|
E|----------------------------------------|

Harmony Gtr2 - X2
e|------------------------------------------|
B|------------------------------------------|
G|------------------------------------------|
D|---------------9-8------------------------|
A|----7-6-7-9-10-----9-9-10-7-7-6-----6-7-9-|
E|--------------------------------8-7-------|

e|------------------------------------------|
B|------------------------------------------|
G|------------------------------------------|
D|---------------9-8------------------------|
A|----7-6-7-9-10-----9-9-10-7-7-6-----------|
E|--------------------------------8-7-5-3-2-|


Main Riff Gtr1 - X1
e|----0----6----0----8----0----6----0----7 E|----0-|
B|----0----6----0----8----0----6----0----7 B|----0-|
G|----0----6----0----8----0----6----0----7 G|----0-|
D|----2----8----2----10---2----8----2----9 D|----2-|
A|----2----8----2----10---2----8----2----9 A|----2-|
E|----0----6----0----8----0----6----0----7 E|----0-|

Main Riff Gtr2 X1
e|------------------------------------------|
B|------------------------------------------|
G|------------------------------------------|
D|---------------9-8------------------------|
A|----7-6-7-9-10-----9-9-10-7-7-6-----6-7-9-|
E|--------------------------------8-7-------|

e|------------------------------------------------0-|
B|------------------------------------------------0-|
G|------------------------------------------------0-|
D|---------------9-8------------------------------2-|
A|----7-6-7-9-10-----9-9-10-7-7-6-----------------2-|
E|--------------------------------8--7--5--3--2---0-|





Comments


Popular Dissection tabs & chords
Night's Blood Bass Tabs
Crimson Towers Tabs
Elisabeth Bathori Tabs
Heaven's Damnation Tabs
Night's Blood Tabs
No Dreams Breed In Breathless Sleep Tabs
No Dreams Breed In Breathless Sleep 1 Tabs
Unhallowed Tabs
Where Dead Angels Lie Tabs
Where Dead Angels Lie 2 Tabs


Song lyrics



↑ Back to top | Tablatures and chords are parodies/interpretations of the original songs. You may use it for private study, scholarship, research or language learning purposes only
© 2014 AZChords.com Contact us | Privacy policy | DMCA | Add/correct tabs | Request tabs | Top 50 tabs