» » »

Dispatch, General Tabs (ver.1)

Artists:  A B C D E F G H I J K L M N O P Q R S T U V W X Y Z # 

General Tabs (ver.1)

Dispatch Tabs
 Rating:
4/5 (4 votes)
General lessons Tabs too difficult? Try these video lessons and learn fast

WWW.AZCHORDS.COM | Dispatch Tabs - General Tabs (ver. 1)


	     Bb	 F			    Cm  Gm		Eb       Bb	F	F
-------------1-1-1--------------------------3-3-3---------------6--------6------1-1-x---1--|
-------------3-3-1--------------------------4-4-3---------------8--------6------1-1-x---1--|
-------------3-3-2--------------------------5-5-3-------------8-8--------7------2-2-x-2-2--|	x1
-------------3-3-3--3-3h5p3---3-------------5-5-5-----------5-8-8--------8------3-3-x-3-3--|
-------1-1---1-1-3----------5---5-3s1---1s3-3-3-5-----1h3-1-3-6-6----x---8------3-3-x-3-3--|
-1-2-3-----3-----1--------------------3---------3-1h3--------------6---6-6------1-1-x---1--|

 	     Bb	 F			    Cm	Gm	    Eb	  Bb	F	F
-------------1-1-1--------------------------3-3-3-----------6-6---6-----1-1-x---1--|
-------------3-3-1--------------------------4-4-3-----------8-8---6-----1-1-x---1--|
-------------3-3-2--------------------------5-5-3-----------8-8---7-----2-2-x-2-2--|	x1
-------------3-3-3--3-3h5p3---3-------------5-5-5---------5-8-8---8-----3-3-x-3-3--|
-------1-1---1-1-3----------5---5-3s1---1s3-3-3-5-----1h3-3-6-6---8-----3-3-x-3-3--|
-1h2h3-----3-----1--------------------3---------3-1h3-----------5s6-----1-1-x---1--|

 Bb	  F	   Cm       Gm	   Eb	  Bb	 F
----------------------------------------------------------------|
---3--------1--------4--------3------8------6--------1----------|
---3--------2--------5-5------3------8------7------x-2--2----2--|	x1
-----x--------3----------5------5------8------7----x----3----3--|
-1--------------3--3---------------6-------------3--------3-----|
----------1-----------------3-------------6------1--------1-----|

 Bb	F	Cm	Gm	Eb	Bb	F
-----------------------------------------------------------|
---3-3----------------------5------------------------------|
------------2-------5---------------8------7-7-------------|	x1
-3--------------5---------------8---8------8-8--3-3--3--3--|
-1------3-------3-------5-------6-------8-------3-3--3--3--|
--------1---------------3---------------6-------1-1--1--1--|

 Bb	F	Cm	Gm	Eb	Bb	 F
-1---1--1-------3-------3-------------------6-6--------------|
-3---3--1-------4-------3-----------8-------6-6--------------|
-3---3--2---2---5---5---3---3-------8-------7-7------2----2--|	x1
-3---3--3-------5-------5---5-------8---8---8-8------3----3--|
-1---1--3-------3-------5-------6----------------3------3----|
--------1---------------3-----------------6------1------1----|

 Bb	F	Cm	Gm	Eb	Bb	F
-1---1--1---1---3---3---3---3------8--------6---------------|
-3---3--1---1---4---4---3---3------8-8------6---------------|
-3---3--2---2---5---5---3---3--------8--------7-----2----2--|	x1
-3---3--3---3---5---5---5---5---8-------------------3----3--|
-1---1--3---3---3---3---5---5---6-------8-------3------3----|
--------1---1-----------3---3-----------6-------1------1----|

 Bb	F	Cm	Gm	Eb	Bb	F
-1------1-------3-------3-------6-------6-------1---------|
-3------1-------4-------3-------8-------6-------1---------|
-3------2-------5-------3-------8-------7-------2------2--|	x1
-3------3-------5-------5-------8-------8-------3---3--3--|
-1------3-------3-------5-------6-------8-------3---3-----|
--------1---------------3---------------6-------1---1-----|

 Bb	F	Cm	Gm	Eb	Bb	F
-1------1-------3-------3-------6-------6-------1--|
-3------1-------4-------3-------8-------6-------1--|
-3------2-------5-------3-------8-------7-------2--|	x3
-3------3-------5-------5-------8-------8-------3--|
-1------3-------3-------5-------6-------8-------3--|
--------1---------------3---------------6-------1--|

   F  F# Gm 		      F
------------3-3--3------------1-1--1--|
------------3-3--3------------1-1--1--|
------------3-3--3------------2-2--2--|	x2
---3--4--5--5-5--5------------3-3--3--|
-0-3--4--5---------1-3-1------3-3--3--|
---1--2--3---------------3-1--1-1--1--|

 Bb	  F	   Cm       Gm	   Eb	  Bb	 F
-------------------------------------------------------------|
---3--------1--------4--------3------8------6----------------|
---3--------2--------5-5------3------8------7--------2----2--|	x1
-----3--------3----------5------5------8------7------3----3--|
-1--------------3--3---------------6-------------3------3----|
----------1-----------------3-------------6------1------1----|

 Bb	F	Cm	Gm	Eb	Bb	F
-1--3------------------------------8--------6------------------|
-3--3--------------4---------------8-8------6-----1------------|
-3--3--------------5-5------4--------8--------7---2------------|	x1
-3----3-3--3--3-5----5------5---8-----------------3-------3-3--|
-1------3--3--3-3-------5---5---6-------8-------3---3--3--3-3--|
--------1--1--1---------3---------------6-------1---1--1--1-1--|

 Bb	F	Cm	Gm	Eb	Bb	F
-1------1-------3-------3-------6-------6-------1--|
-3------1-------4-------3-------8-------6-------1--|
-3------2-------5-------3-------8-------7-------2--|	x4
-3------3-------5-------5-------8-------8-------3--|
-1------3-------3-------5-------6-------8-------3--|
--------1---------------3---------------6-------1--|

   F  F# Gm 	   	      F
------------3-3--3------------1-1--1--|
------------3-3--3------------1-1--1--|
------------3-3--3------------2-2--2--|	x2
---3--4--5--5-5--5------------3-3--3--|
-0-3--4--5---------1-3-1------3-3--3--|
---1--2--3---------------3-1--1-1--1--|

 	     Bb	 F			    Cm	Gm	    Eb	  Bb	F	F
-------------1-1-1--------------------------3-3-3-----------6-6---6-----1-1-x---1--|
-------------3-3-1--------------------------4-4-3-----------8-8---6-----1-1-x---1--|
-------------3-3-2--------------------------5-5-3-----------8-8---7-----2-2-x-2-2--|	x2
-------------3-3-3--3-3h5p3---3-------------5-5-5---------5-8-8---8-----3-3-x-3-3--|
-------1-1---1-1-3----------5---5-3s1---1s3-3-3-5-----1h3-3-6-6---8-----3-3-x-3-3--|
-1h2h3-----3-----1--------------------3---------3-1h3-----------5s6-----1-1-x---1--|

 Bb	F	Cm	Gm	Eb	Bb	F
-1------1-------3-------3-------6-------6-------1--|
-3------1-------4-------3-------8-------6-------1--|
-3------2-------5-------3-------8-------7-------2--|	x2
-3------3-------5-------5-------8-------8-------3--|
-1------3-------3-------5-------6-------8-------3--|
--------1---------------3---------------6-------1--|

 Bb  F	               		Cm  Gm	        Eb    Bb    F	    F
-1-1-1--------------------------3-3-3-----------6-6---6-----1-1-x---1-----------|
-3-3-1--------------------------4-4-3-----------8-8---6-----1-1-x---1-----------|
-3-3-2--------------------------5-5-3-----------8-8---7-----2-2-x-2-2-----------|	x1
-3-3-3--3-3h5p3---3-------------5-5-5---------5-8-8---8-----3-3-x-3-3-----------|
-1-1-3----------5---5-3s1---1s3-3-3-5-----1h3-3-6-6---8-----3-3-x-3-3--------1--|
-----1--------------------3---------3-1h3-----------5s6-----1-1-x---1--1h2h3----|
            
Submit corrections

↑ Back to top | Dispatch Tabs for General. Lyrics for acoustic guitar and electric guitar. Tablatures and chords are parodies/interpretations of the original songs. You may use it for private study, scholarship, research or language learning purposes only