» » »

Dispatch, General Bass tabs (ver.1)

Artists:  A B C D E F G H I J K L M N O P Q R S T U V W X Y Z # 

General Bass tabs (ver.1)

Dispatch Tabs
 Rating:
4.6/5 (10 votes)
General lessons Tabs too difficult? Try these video lessons and learn fast
1
                "-----------------------------------------------------------------
-----------------------------------------------------------------


Tuning: Normal

The bass doesn’t come in until the :50 second mark and cuts out during the verse. This
tab is for the recorded version on the album Bang Bang, live it’s quite a bit different
The lyrics are not intended to be a guide for timing, only to note where each bit of the
song is.

Bridge

G|----------------------------------|
D|------8----------3----------------|
A|---------8----------3-------------|
E|---6----------1---------1-1--1-1--|

“He awoke from the night......”

Bridge 2

G|---------------------------------|
D|------8----------3---------------|
A|---------8----------3------------|
E|---6----------1---------1------1-|

“..Grey morning and they wondered how they would fare...”

Pre Chorus

G|----------------------------------|
D|----------------------------------|  x2
A|----------3-3------6-6-----8------|  
E|-6-6--1-1-----3-3------6-6---1--1-|

“I have seen the others...”

Chorus

G|-----------------------------------------|
D|-----------------------------------------|  
A|------------33x3------66-6---------------|  
E|-66x6--11x1------33x3------66-6--11--1-1-|

“Take a shower, shine your shoes...”

G|--------------------------------------------|
D|------------------------8------3------------|  
A|------------33x3----------8------3----------|  
E|-66x6--11x1------33x3-6------1------11--1-1-|

After Chorus Bit

G|-------------------------------------------|
D|-------------------------------------------|
A|-----------1h3-1x----------------1h3-1x----|
E|-0h1-2-3---------3-1---0h1-2-3---------3-1-|

“You are Forgiven...”

Rest through the verse 

Pre Chorus

G|-----------------------------------------|
D|-----------------------------------------|  
A|---------1-3--1-----3-6-66---------------|  
E|-6---1-----------3----------6-6x6---1--1-|

“I have seen the others...”

G|-----------------------------------------|
D|-----------------------------------------|  
A|---------1-3--1-----3-6-6-5--------------|  
E|-6---1-----------3----------6-66---1--1--|

“I have seen the others...”

Chorus

G|--------------------------------------------|
D|------------------------8------3------------|  
A|------------33x3----------8------3----------|  x2
E|-66x6--11x1------33x3-6------1------11--1-1-|

“Take a shower, shine your shoes...”

After Chorus Bit

G|-------------------------------------------|
D|-------------------------------------------|
A|-----------1h3-1x----------------1h3-1x----|
E|-0h1-2-3---------3-1---0h1-2-3---------3-1-|

“You are forgiven”

Rest

Come in after several repetitions of “You are forgiven” with

Outro

G|-----------------------------------------------------|
D|-----------------------------------------------------|  
A|-----------1-3--1-----3-6-6-5------------------------|  
E|-1-6---1-----------3----------6-6-5--1-1-1-1-1-1-1-1-|

G|----------------------------------|
D|-----8-------3------10------5-----|
A|-------8-------3------10------5---|
E|---6-------1------8-------3-------|

G|---------------------------------|
D|------8----------3---------------|
A|---------8----------3------------|
E|---6----------1---------1-1--1-1-|

G|--------------------------------|
D|--------------------------------|
A|-----------3---6--------------1-|
E|-0h1-3-6-1---3---6-1--0h1-2-3---|

That's it. Occasionally it is hard to hear the bass and I may have the number of
repetitions wrong, but other than that this tab is correct.
"            
Submit corrections

comments powered by Disqus
↑ Back to top | Dispatch Bass for General. Lyrics for acoustic guitar and electric guitar. 1 Tablatures and chords are parodies/interpretations of the original songs. You may use it for private study, scholarship, research or language learning purposes only