>
 >
Flying Horses

Flying Horses Guitar Tabs

Dispatch - Flying Horses chords, tabs, tablatures, lyrics

Guitar lessons | Add/correct | Request | Top 50 tabs Artists:  A B C D E F G H I J K L M N O P Q R S T U V W X Y Z 0-9

Flying Horses Guitar Tabs – Dispatch

CD, Sheet music, Poster

Do you like Flying Horses? Share with your friends now
Bass TabsChordsChords v2TabsTabs v2Tabs v3Ukulele
Dispatch-Flying Horses

/slide up
\slide down
Q. Quarter Note
E. Eigth Note
W. Whole Note


Intro
e|-3--3---5---3---7--7--7--7/10-10\7--3-(3)--3--3--3--7--7/10---5--5--5--5--|
B|-3--3---7---3---8--8--8--8/12-12\8--5-(5)--5--5--5--8--8/12---7--7--7--7--|
G|----------------0-------------------0-(0)--------0-----0/-----0--------0--|
D|--------------------------------------------------------------------------|
A|--------------------------------------------------------------------------|
E|--------------------------------------------------------------------------|

e|-7--7--5--3--(3)--3--3--3--5--5--3---7--7--7--7/10-12\7--3--(3)-3--3--3---|
B|-8--8--7--3--(3)--3--3--3--7--7--3---8--8--8--8/12-12\8--5--(5)-5--5--5---|
G|----------0--(0)---------------------0-------------------0--(0)-------0---|
D|--------------------------------------------------------------------------|
A|--------------------------------------------------------------------------|
E|--------------------------------------------------------------------------|

e|-7--7/10--5--5--5--5--7--7--5--3-------------------------------------------|
B|-8--8/12--7--7--7--7--8--8--7--3-------------------------------------------|
G|----0/----0--------0-----------0-------------------------------------------|
D|-------------------------------0-------------------------------------------|
A|-------------------------------3-------------------------------------------|
E|-------------------------------3-------------------------------------------|

Underneath Intro Harmonica Solo
   Q. Q. E.E. Q. E.E.E.E.E.E. Q. Q.Q.  Q. Q.  E.E.E.E.E.E.E. E.E.E.E. Q.Q.
e|-3--3--2-2--2--0-0-0-0-0-0--0--0-0---0--0---2-2-2-2-2-2-2--3-3-3-3--3-3---|
B|-3--3--3-3--3--0-0-0-0-0-0--0--1-1---0--0---3-3-3-3-3-3-3--3-3-3-3--3-3---|
G|-0--0--2-2--2--0-0-0-0-0-0--0--0-0---0--0---2-2-2-2-2-2-2--2-2-2-2--0-0---|
D|-0--0--0-0--0--2-2-2-2-2-2--2--2-2---2--2---0-0-0-0-0-0-0--0-0-0-0--0-0---|
A|-2--2----------2-2-2-2-2-2--2--3-3---2--2---------------------------2-2---|
E|-3--3----------0-0-0-0-0-0--0--------0--0---------------------------3-3---|
   G     D       Em              C     Em     D              Dsus4    G
   E.E. Q. E.E.E.E.E.E. Q. Q.Q. E.E.  W.
e|-2-2--2--0-0-0-0-0-0--0--0-0--0-0---2--------------------------------------|
B|-3-3--3--0-0-0-0-0-0--0--1-1--0-0---3--------------------------------------|
G|-2-2--2--0-0-0-0-0-0--0--0-0--0-0---2--------------------------------------|
D|-0-0--0--2-2-2-2-2-2--2--2-2--2-2---0--------------------------------------|
A|---------2-2-2-2-2-2--2--3-3--2-2------------------------------------------|
E|---------0-0-0-0-0-0--0-------0-0------------------------------------------|
   D       Em              C    Em    D
Verse
e|---3--3--3--2---2-2-2--0-----------------0-0-0-0--------------------------|
B|---3--3--3--3---3-3-3--0-----------------0-0-0-0--------------------------|
G|---0--0--0--2---2-2-2--0-----------------0-0-0-0--------------------------|
D|------------0---0-0-0--2-----------------2-2-2-2--------------------------|
A|-3-------------------2----------------------------------------------------|
E|-2-------------------0---------------0------------------------------------|

Chorus
   Q.Q.Q.Q  E.E. Q.  W.   E.E.E.E.E.E. Q. E.E.E. E.E. Q. Q. E.E.E.E.E.E.E.E.
e|-3-3-3-3--2-2--2---0----0-0-0-0-0-0--3--3-3-3--2-2--2--0--0-0-0-0-0-0-0-0-|
B|-3-3-3-3--3-3--3---0----0-0-0-0-0-0--3--3-3-3--3-3--3--0--0-1-1-1-1-1-1-1-|
G|-0-0-0-0--2-2--2---0----0-0-0-0-0-0--0--0-0-0--2-2--2--0--0-0-0-0-0-0-0-0-|
D|-0-0-0-0--0-0--0---2----2-2-2-2-2-2--0--0-0-0--0-0--0--2--2-2-2-2-2-2-2-2-|
A|-2-2-2-2-----------2----2-2-2-2-2-2--2--2-2-2----------2--2-3-3-3-3-3-3-3-|
E|-3-3-3-3-----------0----0-0-0-0-0-0--3--3-3-3----------0--0---------------|
   G        D        Em                G         D       Em   C
e|--2------------------|  Go through chorus 2wce then let this ring
B|--3------------------| out (Applys to only first chorus)
G|--2------------------|
D|--0------------------|
A|---------------------|
E|---------------------|


2nd Harmonica Solo
   Q. Q. E.E. Q. E.E.E.E.E.E. Q. Q.Q.  Q. Q.  E.E.E.E.E.E.E.
e|-3--3--2-2--2--0-0-0-0-0-0--0--0-0---0--0---2-2-2-2-2-2-2-----------------|
B|-3--3--3-3--3--0-0-0-0-0-0--0--1-1---0--0---3-3-3-3-3-3-3-----------------|
G|-0--0--2-2--2--0-0-0-0-0-0--0--0-0---0--0---2-2-2-2-2-2-2-----------------|
D|-0--0--0-0--0--2-2-2-2-2-2--2--2-2---2--2---0-0-0-0-0-0-0-----------------|
A|-2--2----------2-2-2-2-2-2--2--3-3---2--2---------------------------------|
E|-3--3----------0-0-0-0-0-0--0--------0--0---------------------------------|
   G     D       Em              C     Em     D

e|--2---------------| Go through Part Directly Above 3 times, on the 4th let
B|--3---------------| the D ring out
G|--2---------------|
D|--0---------------|
A|------------------|
E|------------------|
    D

This was truly a labor of love, I did it in the wee hours of the morning so if
theres a little typo just use your head and you'll be able to figure it out no
worries whatsoever, listen to the song a couple of times to know when to play
each part, the little E. Q. W. note symbols are there to help you with the rythm,
I am sure the bulk of this tab is 99.9% correct.





Comments


Popular Dispatch tabs & chords
Circles Around The Sun Chords
Flying Horses 1 Chords
Out Loud Chords
Prince Of Spades Chords
Bats In The Belfry 2 Tabs
Fat Ol Pig Tabs
Messin Around Tabs
Past The Falls Tabs
Questioned Apocalypes Tabs
Silent Steeples Ukulele


Song lyrics



↑ Back to top | Tablatures and chords are parodies/interpretations of the original songs. You may use it for private study, scholarship, research or language learning purposes only
© 2014 AZChords.com Contact us | Privacy policy | DMCA | Add/correct tabs | Request tabs | Top 50 tabs