>
 >
Flying Horses

Flying Horses Bass Tabs

Dispatch - Flying Horses chords, tabs, tablatures, lyrics

Guitar lessons | Add/correct | Request | Top 50 tabs Artists:  A B C D E F G H I J K L M N O P Q R S T U V W X Y Z 0-9

Flying Horses Bass Tabs – Dispatch

CD, Sheet music, Poster

Do you like Flying Horses? Share with your friends now
Bass TabsChordsChords v2TabsTabs v2Tabs v3Ukulele
Standard Tuning

Intro(x2)
G|---------------|
D|-----2---------|
A|---5---003---5-|
E|-3---------3---|

Verse 1
 |----(x2)------------|
G|--------------------|------------|--------------------|
D|----------2---------|----------2-|----------2-0-12h14-|
A|---035-05---020520--|---035-05---|---035-05-----------|
E|-3----------------0-|-3----------|-3------------------|

 |----(x2)------------|
G|--------------------|------------|------------|
D|----------2---------|----------2-|----------2-|
A|---035-05---020520--|---035-05---|---035-05---|
E|-3----------------0-|-3----------|-3----------|

Bridge 1
G|-------------|------------------|----------------|-----------------|
D|----2--------|----2-02----------|----2-20--------|----2-20>5-------|
A|--5---003---5|--5-----03-3--5320|--5------053---5|--5-----0--3---5-|
E|3---------3--|3-----------3-----|3------------3--|3------------3---|

Verse 2
G|-------------------|-------------------|--------------|------------|
D|----------2--------|----------2----0h2-|--------------|----------2-|
A|---035-05---020520-|---035-05---050----|---035-05-7>0-|---035-05---|
E|-3-----------------|-3-----------------|-3------------|-3----------|

Bridge 2
 |---(x2)-----------|
G|------------------|---|
D|-----2-20-----2---|---|
A|---5-----0--5---3-|-5-|
E|-3--------3-------|---|

Verse 3
G|------------|-------------------|------------|------------|
D|----------2-|----------2--------|----------2-|----------2-|
A|---035-05---|---035-05---020-52-|---035-05---|---035-05---|
E|-3----------|-3-----------------|-3----------|-3----------|

Bridge 3
G|-------------|------------------|-------------|-------------|
D|-----2-------|-----2------------|-----2---5---|-----5---5---|
A|---5---3---5-|---5---3---5-5320-|---5---3---5-|---5---3---5-|
E|-3-------3---|-3-------3--------|-3-----------|-3-----------|

Harmonica Solo
G|--------------------|----------------|--------------------|-----------|
D|----2-----5---------|----2-0222------|----2-----5---------|----2---5--|
A|--5---003---5-5532h3|--5--------3---5|--5---003---5-5532h3|--5---3---5|
E|3-------------------|3------------3--|3-------------------|3----------|

Bridge 4
 
G|---------24042---------|---------------|
D|-----2-25-----0----2---|-----2-----2---|
A|---5-------------5---3-|---5-----5---3-|
E|-3-------------3-------|-3-----3-------|

Ending
G|---------------->55555--|>>>Fade out
D|-55---02-55---2---------|
A|----5-------5-----------|
E|------------------------|

Thanks, please rate it after you learn it.





Comments


Popular Dispatch tabs & chords
General Bass Tabs
Here We Go Chords
Passerby Chords
Two Coins Chords
Messin Around Tabs
Railway Tabs
Seasons Movement 3 Tabs
Time Served 4 Tabs
Way It Goes Tabs
Silent Steeples Ukulele


Song lyrics



↑ Back to top | Tablatures and chords are parodies/interpretations of the original songs. You may use it for private study, scholarship, research or language learning purposes only
© 2014 AZChords.com Contact us | Privacy policy | DMCA | Add/correct tabs | Request tabs | Top 50 tabs