» » »

Dispatch, Even Tabs (ver.1)

Artists:  A B C D E F G H I J K L M N O P Q R S T U V W X Y Z # 

Even Tabs (ver.1)

Dispatch Tabs
 Rating:
3.1/5 (7 votes)
Even lessons Tabs too difficult? Try these video lessons and learn fast
                EVEN by DISPATCH


Can't believe there wasn't an accurate version of this tab ANYWHERE ON THE INTERNET, so 
posting my own.  Tabbed from All Points Bulletin.

INTRO
e|--0------0------7-------5----3----3------5----(5)--------------------------|
B|---0------0------0-----------------0------0--------------------------------|
G|----0------0------0-----------------0------0-----------------repeat--------|
D|-2----2/4----4/5----5\4---4\2----2----2/4---------------0h1----as----------|
A|---------------------------------------------5---(5)-5p2----necessary------|
E|---------------------------------------------------------------------------|

VERSE
e|--3------5------7-------5----3---------------------------------------------|
B|---0------0------0--------------repeat-------------------------------------|
G|----0------0------0---------------as---------------------------------------|
D|-2----2/4----4/5----5\4---4\2----necessary---------------------------------|
A|---------------------------------------------------------------------------|
E|---------------------------------------------------------------------------|

CHORUS:

                             A5
They'll never ever ever find me

  E5        B5      G5     D5
Headman, walking, right in front of me
  E5        B5      G5      D5
Don't you, look in, I'm not here you see
  E5     B5           G5     D5
Deadman told me where I am to hide
  E5        B5      G5     D5
Said he's waitin' there, where it's all


E5,B5,D5,D5
Even...
E5,B5,A5,A5
Even...
E5,B5,D5,D5
Even...
E5,B5,A5,A5
Even...

INTRO x1
VERSE x1
CHORUS x1

INTERLUDE:

for the ah yeah part he just fiddles around with the intro/verse sections, focusing 
on the D,B and e strings.

BRIDGE:


 E5       G5  B5 A5    D5
Walk on, will we, walk on
          G5           B5
With our heads to the wall
                           A5                 D5
Let them find that they'll never find us all
 E5    C5         G5        D5
Hey I wanted a life less hidden
 E5    C5        G5                      D5
They wanted a life, but I'll never give them

        E5    A5
Part of me...
        D5    G5
Part of me...

        E5      D5
I will save my right
     G5        A5
So hard to the ground
        D5       E5     A5
'Til we all lay down
         D5           E5
'Til we lay ourselves down

INTRO/VERSE mixture
(Live version)
You can feel them
You can feel them comin'


| >  let ring
| () ghost note
| /  slide up
| \  slide down
| h  hammer-on
| p  pull-off
| ~  vibrato
| +  harmonic
| x  Mute note
            
Submit corrections

comments powered by Disqus
↑ Back to top | Dispatch Tabs for Even. Lyrics for acoustic guitar and electric guitar. Tablatures and chords are parodies/interpretations of the original songs. You may use it for private study, scholarship, research or language learning purposes only