» » »

Even Bass tabs (ver.1)

Artists:  A B C D E F G H I J K L M N O P Q R S T U V W X Y Z # 

Even Bass tabs (ver.1)

Dispatch
Rating:
5/5 (1 vote)

Hard to play? Try these video lessons and learn fast.
                -------------------------------------------------------------------------------
-------------------------------------------------------------------------------



Tuning: Standard EADG

Ok here it is. Remember, this is my transcription, it is not meant to be
exactly correct. The timing may be a bit awkward, but it’s easy enough for you
to figure it out yourself.

Intro (0:09)
G|--------------------|------------------------------------------------------|
D|--------------------|-----------------------0-1----------------------------|
A|-7---7-5---7--------|-7---7-5---7------5-2---------------------------------|
E|-------------7------|-------------7----------------------------------------|

Verse (0:18)
G|---------------------------x4||--14h16--14------------------------------x2||
D|o---------------------------o||o-----------17-16-17-16-14---------12-----o||
A|o-7---7-5---7-------------5-o||o----------------------------12h14--------o||
E|--------------7---5h7-5h7----||-------------------------------------------||

G|---------------------------------------------------------------------------|
D|---------------------------------------------------------------------------|
A|-14\12---------------------------------------------------------------------|
E|---------------------------------------------------------------------------|

Chorus (0:50)
G|------------------------x4||-------------------------7---------------------|
D|-------------------------o||o--------------------7h9---9-7-----------------|
A|-------------------5-5-5-o||o------------------------------9---------------|
E|-0-0-0-7-7-7-3-3-3--------||--7--7-7-7-8--8-8-8----------------------------|

G|--------------------------------------------x2||---------------------------|
D|---------------------------------------------o||---------------------------|
A|---------------------------------------------o||---------------------------|
E|-7--7-7-7-8--8-8-8-10--10-10-10-10--10-10-10--||---------------------------|

Break (1:19)
G|----------------------||---------------------------------------------------|
D|o--------------------o||---------------------------------------------------|
A|o-7---7-5---7--------o||---------5-----------------------------------------|
E|--------------7-------||-5h7-5h7-------------------------------------------|

Verse (1:28)
G|---------------------------x4||--14h16--14------------------------------x2||
D|o---------------------------o||o-----------17-16-17-16-14---------12-----o||
A|o-7---7-5---7-------------5-o||o----------------------------12h14--------o||
E|--------------7---5h7-5h7----||-------------------------------------------||

Chorus (2:00)
G|------------------------x4||-------------------------7---------------------|
D|-------------------------o||o--------------------7h9---9-7-----------------|
A|-------------------5-5-5-o||o------------------------------9---------------|
E|-0-0-0-7-7-7-3-3-3--------||--7--7-7-7-8--8-8-8----------------------------|

G|--------------------------------------------x2||---------------------------|
D|---------------------------------------------o||---------------------------|
A|---------------------------------------------o||---------------------------|
E|-7--7-7-7-8--8-8-8-10--10-10-10-10--10-10-10--||---------------------------|

Interlude (2:38)
G|-16h19--16---------14--14h16---------14---14h16----------------------------|
D|-------------14h16-------------14h16---------------------------------------|
A|---------------------------------------------------------------------------|
E|---------------------------------------------------------------------------|

G|--16-16-16-14----------x4||--------------x5||Listen to the song to hear----|
D|o--------------17-16-17-o||o-------12--14-o||how this part goes. The 5x----|
A|o-----------------------o||o-12h14--------o||is a bit strange but you’ll---|
E|-------------------------||----------------||hear it if you listen to it---|

Bridge (3:04)
G|---------------------------------|-----------------------------------------|
D|---------------------------------|-----------------------------------------|
A|-------------5-4-------------5---|----3------5------3------5---------------|
E|-0---3-7-5-------3---0---5-------|-0-----3-------0-----3-------------------|

G|---------------------------------|-----------------------------------------|
D|---------------------------------|-----------------------------------------|
A|---------5---------------5-------|----5----------5---------5---------------|
E|-0--5-------3----0--5-------3----|-0------3--5------0---5------------------|

Outro (3:48)
G|--------------------------x10||--------------------------------------------|
D|o---------------------------o||--------------------------------------------|
A|o-7---7-5---7-------------5-o||-7~-----------------------------------------|
E|--------------7---5h7-5h7----||--------------------------------------------|


| /  slide up
| \  slide down
| h  hammer-on
| p  pull-off
| ~  vibrato
| +  harmonic
| x  Mute note
===============================================================================
            
Hard to play? Try these video lessons and learn fast. | Correct




comments powered by Disqus
↑ Back to top | Tablatures and chords are parodies/interpretations of the original songs. You may use it for private study, scholarship, research or language learning purposes only