>
 >
Bang Bang 2

Bang Bang 2 Guitar Tabs

Dispatch - Bang Bang 2 chords, tabs, tablatures, lyrics

Guitar lessons | Add/correct | Request | Top 50 tabs Artists:  A B C D E F G H I J K L M N O P Q R S T U V W X Y Z 0-9

Bang Bang 2 Guitar Tabs – Dispatch

CD, Sheet music, Poster

Do you like Bang Bang 2? Share with your friends now
Bass TabsTabsTabs v2Tabs v3Tabs v4
This is the main riff of the song.

e---x--x------------------------------------------------------|
B---9--9------------------------------------------------------|
G---9--9----9----9----9----9----------------------------------|
D---9--9----9h11-9----9----9----------------------------------|
A---7--7----9----9----9h11-9----------7--7h9------------------|
E---x--x------------------------7h9---------------------------|

Hey Hey, Mr. Man...

e---7--7----5----7---------------7--7----5----7--7h9-7---------|
B---9--9----5----7--7-9-7-9-7----9--9----5----8--------9-7-9-7-|
G---9--9----6----8---------------9--9----6----9----------------|
D---9--9----7----9---------------9--9----7----9----------------|
A---7--7----7----9---------------7--7----7----9----------------|
E---x--x----5----7---------------x--x----5----7----------------|
                 ^                            ^
                 ^let chord ring and play the picking part
                  (I Play it with my 4th finger)

Hey Hey, Mr. Man continued...

e---7--7----5----7---------------------------------------------|
B---9--9----5----7---------------------------------------------|
G---9--9----6----8--8h9-8--8h9-8-------------------------------|
D---9--9----7----9---------------------------------------------|
A---7--7----7----9---------------------------------------------|
E---x--x----5----7---------------------------------------------|
                 ^
                 ^let chord ring and play the picking part

I should have been...         solo:

e---x---x---x---7------------------------------------------------------|
B---10--9---9---9------------------------------------------------------|
G---8---8---8---9-------------------9h11--9-----6h9--6------6h9--6-----|
D---9---9---9---9---------------------------------------9-----------9--|
A---7---7---7---7------------------------------------------------------|
E---x---x---x---x------------------------------------------------------|

Solo continued....

e--------------------------------------------------------------------------|
B--------------------------------------------------------------------------|
G---6h9--6---------------------------9-11-9-------------9--9h11----9h11----|
D-----------9--6---------9-9-9-9h11------------9--9/11---------------------|
A------------------9/11----------------------------------------------------|
E--------------------------------------------------------------------------|

Solo continued...

e--[------------------------------------]
B--[-7b8--7------------7b8--7-----------]
G--[----------6b7--6------------6b7--6--]  2 Times...Then back to main riff
D--[------------------------------------]
A--[------------------------------------]
E--[------------------------------------]

I need another fix...

e---7---x---x------7---x---x---------|
B---9---7---10-----9---7---10--------|
G---9---9---9------9---9---9---------|
D---9---9---9------9---9---9---------|  Back to main riff
A---7---7---7------7---7---7---------|
E---x---x---x------x---x---x---------|

Outro

e----------------------------------------------|
B----------------------------------------------|
G---11b12--9-9-9-9-9-9-9-9-9-9h11-9------------|
D----------------------------------------------|
A----------------------------------------------|
E----------------------------------------------|

Key:
b= bend to
h= hammer on
/= slide up





Comments


Popular Dispatch tabs & chords
Cover This Live Bass Tabs
Headlights Chords
Here We Go 1 Chords
Carry You 2 Tabs
Fat Ol Pig Tabs
Mayday Tabs
Mission 1 Tabs
Wide Right Turns Tabs
Hey Hey Ukulele
Passerby Ukulele


Song lyrics



↑ Back to top | Tablatures and chords are parodies/interpretations of the original songs. You may use it for private study, scholarship, research or language learning purposes only
© 2014 AZChords.com Contact us | Privacy policy | DMCA | Add/correct tabs | Request tabs | Top 50 tabs