>
 >
Bang Bang

Bang Bang Guitar Tabs

Dispatch - Bang Bang chords, tabs, tablatures, lyrics

Guitar lessons | Add/correct | Request | Top 50 tabs Artists:  A B C D E F G H I J K L M N O P Q R S T U V W X Y Z 0-9

Bang Bang Guitar Tabs – Dispatch

CD, Sheet music, Poster

Do you like Bang Bang? Share with your friends now
Bass TabsTabsTabs v2Tabs v3Tabs v4
-------------------------------------------------------------------------------
-------------------------------------------------------------------------------

Tuning: EADGBe


   E
e|-7-7-------------------------------|
B|-9-9-------9-----------------------|
G|-9-9--9----9-------9---------------|	x4
D|-9-9--9h11----9h11-9---------------|
A|-7-7----------9h11-9------7--7h9---|
E|----------------------7h9----------|

   E
e|-7-7-------------------------------|
B|-9-9-------------------------------|
G|-9-9--9----9-----------------------|	x14
D|-9-9--9h11-9--9h11-9---------------|
A|-7-7----------9h11-9------7--7h9---|
E|----------------------7h9----------|

   E
e|-7-7-------------------------------|
B|-9-9-------------------------------|
G|-9-9--9----9-----------------------|	x1
D|-9-9--9h11-9--9h11-9---------------|
A|-7-7----------9h11-9------7h9-7h9--|
E|----------------------7h9----------|

   E
e|-7-7-------------------------------|
B|-9-9-------9-----------------------|
G|-9-9--9----9-------9---------------|	x3
D|-9-9--9h11----9h11-9---------------|
A|-7-7----------9h11-9------7--7h9---|
E|----------------------7h9----------|

   C#m   A       B		               C#     A       B
e|-4-4---5-------7--7---7-7-7-7---4-4----5-------7--7h9-7-7---7-7-7-7--|
B|-5-5---5-------7--7h9-7-9-7-9---4-4----5-------7--7---7-7h9-7-9-7-9--|
G|-6-6---6-------8--8---8-8-8-8---6-6----6-------8--8---8-8---8-8-8-8--|	x1
D|-6-6---7-------9--7---9-9-9-9---6-6----7-------9--7---9-9---9-9-9-9--|
A|-4-4---7-------9--9-------------4-4----7-------9--9------------------|
E|-------5-------7--7--------------------5-------7--7------------------|

   C#m    A	      B		                A	     G#	     C#m	    B
e|-4-4----5-------7--7---7--7---7---5------4-------4-------7--|
B|-5-5----5-------7--7---7--7---7---5------4-------5-------7--|
G|-6-6----6-------8--8h9-8--8h9-8---6------5-------6-------8--|	x1
D|-6-6----7-------9--9---9--9---9---7------6-------6-------9--|
A|-7-7----7-------9-----------------7------6-------4-------9--|
E|--------5-------7-----------------5------5---------------7--|

LEAD:
e|------------------------------------------------------------------------|
B|------------------------------------------------------------------------|
G|-9h11-9--6h9-6----6h9--6----6h9-6----------------------------9--9h11-9--|
D|---------------9---------9--------9-6------------9-9-9--9h11------------|
A|---------------------------------------7--9-9s11------------------------|
E|------------------------------------------------------------------------|

e|-------------------------------------------------------------------------------------------|
B|-------------------------------------------------------------------------------------------|
G|-------------------------12r11-9----------12r11-9---------12r11-9---------12r11-9----------|
D|--------9--9h11--9h11-9----------12r11-9----------12r11-9---------12r11-9---------12r11-9--|
A|-7-9s11------------------------------------------------------------------------------------|
E|-------------------------------------------------------------------------------------------|

   E
e|-7-7-------------------------------|
B|-9-9-------------------------------|
G|-9-9--9----9-----------------------|	x2
D|-9-9--9h11-9--9h11-9---------------|
A|-7-7----------9h11-9------7--7h9---|
E|----------------------7h9----------|

   E	     B   B7
e|-7------7---7---|
B|-9------7---10--|
G|-9------8---8---|	x2
D|-9------9---7---|
A|-7------9---9---|
E|--------7---7---|

   E
e|-7-7------------------------------|
B|-9-9------------------------------|
G|-9-9--9----9----------------------|	x7
D|-9-9--9h11-9--9h11-9--------------|
A|-7-7----------9h11-9------7--7h9--|
E|----------------------7h9---------|

   E				                               E
e|-7-7------------------------------7--|
B|-9-9------------------------------9--|
G|-9-9--9----9----------------------9--|	x8
D|-9-9--9h11-9--9h11-9--------------9--|
A|-7-7----------9h11-9------7--7h9--7--|
E|----------------------7h9------------|

**DRUMS & VOCALS**

   E
e|-7--------------------------------------------------|
B|-9--------------------------------------------------|
G|-9--9----9----------13r11--9-9-9-9-9-9-9-9--9h11-9--|	x1
D|-9--9h11-9--9h11-9----------------------------------|
A|-7----------9h11-9----------------------------------|
E|----------------------------------------------------|


| /  slide up
| \  slide down
| h  hammer-on
| p  pull-off
| ~  vibrato
| +  harmonic
| x  Mute note
===============================================================================





Comments


Popular Dispatch tabs & chords
Broken American Tabs
By The Phone Tabs
Cover This 1 Tabs
Elias 1 Tabs
Seasons: Movement Iii Tabs
Time Served 4 Tabs
Walk With You 1 Tabs
Circles Around The Sun Ukulele
Flying Horses Ukulele
Questioned Apocalypes Ukulele


Song lyrics



↑ Back to top | Tablatures and chords are parodies/interpretations of the original songs. You may use it for private study, scholarship, research or language learning purposes only
© 2014 AZChords.com Contact us | Privacy policy | DMCA | Add/correct tabs | Request tabs | Top 50 tabs