>
 >
Im Bored

Im Bored Guitar Tabs

Death Angel - Im Bored chords, tabs, tablatures, lyrics

Guitar lessons | Add/correct | Request | Top 50 tabs Artists:  A B C D E F G H I J K L M N O P Q R S T U V W X Y Z 0-9

Im Bored Guitar Tabs – Death Angel

CD, Sheet music, Poster

Do you like Im Bored? Share with your friends now
TabsTabs v2
                        Death Angel - I'm Bored


Standard E tuning: EADGBE


song order is as follows:
Intro
Fig.1 -  10 times
Fig.2 -   8 times
Fig.1 -   4 times
Fig.2 -   2 times
Fig.1 -   4 times
Fig.2 -   4 times
Fig.1 -   4 times
Fig.2 -   2 times
Fig.1 -   4 times
Fig.2 -   4 times
Fig.1 -   8 times(under Solo)


    intro:                                                              
E---||-----------------|------------------------------------------------
B---||-----------------|------------------------------------------------
G---||-----------------|------------------------------------------------
D---||--2p0--2p0--2p0--|------------------------------------------------
A---||-----------------|------------------------------------------------
E---||-----------------|------------------------------------------------
                                                                        

                                                                        
E-----------------------------------------------------------------------
B-----------------------------------------------------------------------
G-----------------------------------------------------------------------
D-----------------------------------------------------------------------
A-----------------------------------------------------------------------
E---0--0--0--0--------3~~~-----0--0-----2~~~-----0--0--0--0--------3----
                                                                        

                                                                        
E---------------------------------|-------------------------------------
B---------------------------------|-------------------------------------
G---------------------------------|-------------------------------------
D-----------------2p0-------------|-------------------------------------
A----------------------2p0--------|-------------------------------------
E---~~~--0------------------3~~~--|-------------------------------------
                                                                        

                                                                        
E-----------------------------------------------------------------------
B-----------------------------------------------------------------------
G-----------------------------------------------------------------------
D-----------------------------------------------------------------------
A-----------------------------------------------------------------------
E---0--0--0--0--------3~~~-----0--0-----2~~~-----0--0--0--0-----3p0-----
                                                                        

               end intro                                                
E------------------------------||--||-----------------------------------
B------------------------------||--||-----------------------------------
G------------------------------||--||-----------------------------------
D---------------------------2--||--||-----------------------------------
A---------2--------5-----------||--||-----------------------------------
E------------------------------||--||-----------------------------------
                                                                        

    fig. 1                                                              
E-----------------------------------------------------------------------
B-----------------------------------------------------------------------
G-----------------------------------------------------------------------
D-----------------------------------------------------------------------
A-----------------------------------------------------------------------
E---0--0--0--0-----3~~~-----0--0-----2~~~-----0--0--0--0-----3~~~-------
                                                                        

            end fig. 1                                                  
E---------------------||--||--------------------------------------------
B---------------------||--||--------------------------------------------
G---------------------||--||--------------------------------------------
D------2p0--2p0--2p0--||--||--------------------------------------------
A---------------------||--||--------------------------------------------
E---0-----------------||--||--------------------------------------------
                                                                        

    fig. 2                                                              
E-----------------------------------------------------------------------
B-----------------------------------------------------------------------
G-----------------------------------------------------------------------
D-----------------------------------------------------------------------
A------------------5-----------------4-----------------------5----------
E---0--0--0--0-----3~~~-----0--0-----2~~~-----0--0--0--0-----3~~~-------
                                                                        

                                                                        
E---------------||--||--------------------------------------------------
B---------------||--||--------------------------------------------------
G---------------||--||--------------------------------------------------
D------------7--||--||--------------------------------------------------
A------------5--||--||--------------------------------------------------
E---0--0--------||--||--------------------------------------------------
                                                                        

    *slowly dive & return with bar                                      
E-----------------------------------------------------------------------
B-----------------------------------------------------------------------
G-----------------------------------------------------------------------
D---2-----------------------------(2)------------------------9----------
A---2-----------------------------(2)------------------------7----------
E---0-----------------------------(0)------------------------0----------
                                                                        

                                                                        
E---||--||--------------------------------------------------------------
B---||--||--------------------------------------------------------------
G---||--||--------------------------------------------------------------
D---||--||--------------------------------------------------------------
A---||--||--------------------------------------------------------------
E---||--||--------------------------------------------------------------
                                                                        

    solo                                                                
E----------------------------17--(17)------------17--(17)---------------
B------------------------17------------------17------------------17-----
G---------------------x-------------------x-------------------x---------
D---------------x----------------------x-------------------x------------
A-----------------------------------------------------------------------
E-----------------------------------------------------------------------
                                                                        

                                                                        
E---17--(17)--------17------------17------------17------------17--------
B--------------------------17------------17------------17---------------
G-----------------------------------------------------------------------
D-----------------------------------------------------------------------
A-----------------------------------------------------------------------
E-----------------------------------------------------------------------
                                                                        

                                                                        
E----------15~~~--------------------------------------------------------
B---17---------------20--17---------------------------------------------
G----------------------------19--19^-----17-----------------------------
D--------------------------------------------19--17~~~--19-----17-------
A-----------------------------------------------------------------------
E-----------------------------------------------------------------------
                                                                        

                                                                        
E-----------------------------------------------------------------------
B-----------------------------------------------------------------------
G-----------------------------------------------------------------------
D---16------------12/14~~~-----------------------------12-----12h14-----
A----------17-------------------------12-----12h14h15-------------------
E---------------------------12h14h15------------------------------------
                                                                        

                                                                        
E------------------------------------------12---------15p12------15-----
B-------------------------13-----12h13h15---------12---------12---------
G--------12-----12h14h15------------------------------------------------
D---h15-----------------------------------------------------------------
A-----------------------------------------------------------------------
E-----------------------------------------------------------------------
                                                                        

                                                                        
E---p12-----------------------------------------------------------------
B--------12--15p12------15p12-------------------------------------------
G-------------------12---------12--15--14--12------12--14--12h14p12-----
D----------------------------------------------14-----------------------
A-----------------------------------------------------------------------
E-----------------------------------------------------------------------
                                                                        

                                                                        
E-----------------------------------------------------------------------
B-----------------------------------------------------------------------
G-------12--------------------------------------------------------------
D---14------14----------------------------------------------------------
A---------------15--14--12------12----------------------12--14--15------
E---------------------------15------15--14--12--14--15------------------
                                                                        

                                                                        
E-----------------------------------------------------------------------
B-----------------------------------------------------------------------
G---------------12/14~~~--12/14~~~--12------14p12---------14p12---------
D---------------------------------------14---------14~~~---------14-----
A---p14--14~~~----------------------------------------------------------
E-----------------------------------------------------------------------
                                                                        

                                             *hold                      
E-----------------------------------------------------------------------
B--------------------22^--20--------------------------------------------
G-------------12/20-----------20--21-----14^--(14)--14------------------
D---12/14~~~------------------------------------------------------------
A-----------------------------------------------------------------------
E-----------------------------------------------------------------------
                                                                        

    *release bend                    *hold         *release bend        
E-----------------------------------------------------------------------
B-----------------------------------------------------------------------
G------12------12------------12--14^--(14)-----14-----12----------------
D----------14------------14-------------------------------14~~~~~~------
A-----------------------------------------------------------------------
E-----------------------------------------------------------------------
                                                                        

                         slow dive & heavy vibrato until end            
E-----------------------------------------------------------------------
B-----------------------------------------------------------------------
G-----------------------------------------------------------------------
D---(14)~~~~~~--(14)~~~~~~----------------------------------------------
A-----------------------------------------------------------------------
E-----------------------------------------------------------------------
                                                                        



========================================================================
==                       TABLATURE EXPLANATION                        ==
========================================================================

----------                ----------                ----t---
----5h8--- Hammeron       ----(8)--- Ghost          ----6--- Tap
----------                ---------- Note           --------
----5p8--- Pulloff        ----------                --------

----------                ----------                -----p--
----5/8--- Slide Up       -----x---- Dead           -----7-- Pop
----------                ---------- Note           --s-----
----5\8--- Slide Down     ----------                --5----- Slap 

----------                ||------|| Repeat         --------
----5~~~-- Vibrato        ||*----*||                ---5^--- Bend
----------                ||*----*||                --------
----------                ||------||                --------

----------                ----------                --------
-4:------- Time           ----------                --------
-4:------- Signature      ----------                --------
----------                ----------                --------

========================================================================
==               Created with BUCKET O' TAB for Windows               ==
========================================================================





Comments


Popular Death Angel tabs & chords
Bored Bass Tabs
3rd Floor Tabs
Five Steps Of Freedom Tabs
God Vs. God Tabs
Thrashers Tabs
Thrown To The Wolves Tabs
Ultra Violence Tabs
Volcanic Tabs
Voracious Souls Tabs
A Room With A View Ukulele


Song lyrics



↑ Back to top | Tablatures and chords are parodies/interpretations of the original songs. You may use it for private study, scholarship, research or language learning purposes only
© 2014 AZChords.com Contact us | Privacy policy | DMCA | Add/correct tabs | Request tabs | Top 50 tabs