>
 >
Voracious Souls

Voracious Souls Guitar Tabs

Death Angel - Voracious Souls chords, tabs, tablatures, lyrics

Guitar lessons | Add/correct | Request | Top 50 tabs Artists:  A B C D E F G H I J K L M N O P Q R S T U V W X Y Z 0-9

Voracious Souls Guitar Tabs – Death Angel

CD, Sheet music, Poster

Do you like Voracious Souls? Share with your friends now
Tabs
Band:  Death Angel

Copyright (c)  (Under One Flag) (1987)
Version 1.0 - (23/05/05)




.  - palm mute           /  - slide up to
\  - slide down to       ~  - vibrato
h  - hammer on           b  - Bend
p  - pull off            Suffixes for bend
t  - tap                 f  - full bend    h - half bend
ph - pinched harmonic    q  - quarter bend t - tap bend
*  - see comment         ^  - Hold bend    r release bend
x  - Stuccatto           ~  - vibrato bend
,  - slight palm mute    () - ghost note, sustained note
"  - tremolo note        <> - Harmonic

Tunning E A D G B E
 
 Intro

 Drum Fill
                                          Trem vibrato with feedback
E-------------------------------------------------------------------|
B-------------------------------------------------------------------|
G-------------------------------------------------------------------|
D-4------------------------(4)--------------------------------------|
A-4------------------------(4)--------------------------------------|
E-2------------------------(2)--------------------------------------|

E--------------------------------------------------------|
B--------------------------------------------------------|
G--------------------------------------------------------|
D--------------------------------------------------------|
A-4--4-4-4-4--4--4--4-4-4-4--4--4-4-4-4--4--4-4----4-----|
E-2--2-2-2-2--2--2--2-2-2-2--2--2-2-2-2--2--2-2----2-----|

 Main Riff

 [------PM-----] [-----PM----]
E---------------------------------|
B---------------------------------|
G---------------------------------|
D---------------5-------------4\3-|
A-4-4---4/5\4---3-4-4---4/5\4-2\1-|
E-2-2-0-2/3\2p0---2-2-0-2/3\2-----| Rpt 2 X 

 [------PM-----] [-----PM----]
E---------------------------------|
B---------------------------------|
G---------------------------------|
D---------------5-------------4---|
A-4-4---4/5\4---3-4-4---4/5\4-2---|
E-2-2-0-2/3\2p0---2-2-0-2/3\2-----|

 [------PM-----] [-----PM----]
E---------------------------------|
B---------------------------------|
G---------------------------------|
D---------------5-------------4\3-|
A-4-4---4/5\4---3-4-4---4/5\4-2\1-|
E-2-2-0-2/3\2p0---2-2-0-2/3\2-----| 

E---------------------------------|
B---------------------------------|
G---------------------------------|
D---------------5-------------4\3-|
A---------------3-------------2\1-|
E-2-2-0-2-3-2p0---2-2-0-2-3-2-----| Rpt 4 X

 Additional guitar
                              phph
E---------------------------------|
B---------------------------------|
G-----------------------------4-3-|
D---------------------------------|
A---------------------------------|
E---------------------------------|

                             
E---------------------------------|
B---------------------------------|
G----------------5\4-5-4-5-4-5-4-5|
D----------------5\4--------------|
A---------------------------------|
E---------------------------------|



E------------------------------------------|
B------12-10-------------------------------|
G---11-------10----9-----------------------|
D-9-------------11---7-10----9----8---7----|
A-------------------------11---10---9---8--|
E------------------------------------------|
  
 Verse

   [----------PM-----------]
E----------------------------------|
B----------------------------------|
G----------------------------------|
D-------------------------------5--|
A-4---------------------------4-3--|
E-2-222-222-222-222-222-222-0-2----|

   [----------PM-----------]
E-----------------------------------|
B-----------------------------------|
G-----------------------------------|
D-----------------------------4---3-|
A-4---------------------------2---1-|
E-2-222-222-222-222-222-222-x---x---| Rpt 3 X

   [----------PM-----------]
E----------------------------------|
B----------------------------------|
G----------------------------------|
D-------------------------------5--|
A-4---------------------------4-3--|
E-2-222-222-222-222-222-222-0-2----|

   [----------PM-----------]
E-----------------------------------|
B-----------------------------------|
G-----------------------------------|
D-----------------------------------|
A-4---------------------------2---3-|
E-2-222-222-222-222-222-222-2-0-x-1-|

 Chorus

E-------------------------------------|
B---------0---------------------------|
G---------0----------------------1----|
D-4-------2-------5----(5)------1---1-|
A-4-------2-------5----(5)----1-------|
E-2-------0-------3----(3)------------|

  Guitar 1
E[-------------------------------------|
B[---------0---------------------------|
G[---------0-----------------------1---|
D[-4-------2-------5----(5)------1---1-|
A[-4-------2-------5----(5)----1-------|
E[-2-------0-------3----(3)------------|
 [Guitar 2
 [                          Trem vibrato
E[------------<12>---------------------|
B[----------<12><12>-------------------|
G[-11------9-------12------<12>--------|
D[-11------9-------12------------------|
A[-9-------7-------10------------------|
E[-------------------------------------|

  Acoustic
E[---0-------0-------3--------|
B[-----0-------0-------3------|
G[-0-----0-0-----0-4-----4----|
D[-4-------2-------5----------|
A[-4-------2-------5----------|
E[-2-------0-------3----------|
 [Cleanish guitar with flanger
E[----------------------------|
B[-----------8-\--------------|
G[-----------9-\--------------|
D[-----------9-\--------------|
A[----------------------------|
E[----------------------------|

 Distorted
E---------|
B---------|
G-----1---|
D---1---1-|
A-1-------|
E---------|

 [------------------------PM--------------------------]
E---------------------------------------------------------------|
B---------------------------------------------------------------|
G-----------------------------------------------------------1---|
D---------------------------------------------------------1---1-|
A-4-4-4-4-4-4-4-4-2-2-2-2-2-2-2-2-5-5-5-5-5-5-5-5-5-5-5-1-------|
E-2-2-2-2-2-2-2-2-0-0-0-0-0-0-0-0-3-3-3-3-3-3-3-3-3-3-3---------|

 Rpt Palm muted version of Main Riff 2 X
 Lead fill appers last time

 ph ph    h     h        
E---------------------------|
B---------------------------|
G-5p4-----------------------|
D-----5-4-5p4---------------|
A-------------4-5p4---------|
E-------------------5-0-2---|

 Rpt un-muted Main Riff and descending lead line.
 
  Guitar 1
  [---------------------PM---------------------------]
E[----------------------------------------------------|
B[----------------------------------------------------|
G[----------------------------------------------------|
D[----------------------------------------------------|
A[------------------------------333333333222222111111-|
E[-02222220222222322222202222222----------------------|
 [
 [Guitar 2
E[----------------------------------------------------|
B[----------------------------------------------------|
G[----------------------------------------------------|
D[----------------------------------------------------|
A[-4--------------------------------------------------|
E[-2--------------------------------------------------|


  Guitar 1
E[---------------------------------------------------------------|
B[------------------------------13131313131313131212121211111111-|
G[---------------------------------------------------------------|
D[---------------------------------------------------------------|
A[-4-------------------------------------------------------------|
E[-2-------------------------------------------------------------|
 [Guitar 2
 [[------------PM--------------]
E[---------------------------------------------------------------|
B[---------------------------------------------------------------|
G[---------------------------------------------------------------|
D[---------------------------------------------------------------|
A[---------------------------------------------------------------|
E[-02222220222222322222202222222---------------------------------|

 Backing for guitar solo

 [---------------------PM---------------------------]
E----------------------------------------------------|
B----------------------------------------------------|
G----------------------------------------------------|
D----------------------------------------------------|
A------------------------------333333333222222111111-|
E-02222220222222322222202222222----------------------| Rpt 4 X

 Rpt Palm muted version of Main Riff 2 X
 Rpt un-muted Main Riff and descending lead line.
 Rpt Verse and Chorus

  Guitar 1
E[--------------------------------|
B[-----8-----8-----8-----8\-------|
G[-7-7---7-7---7-7---7-7----------|
D[--------------------------------|
A[--------------------------------|
E[--------------------------------|
 [Guitar 2
E[--------------------------------|
B[--------------------------------|
G[--------------------------------|
D[-----------------------------6--|
A[-------------------------5-6----|
E[--------------------------------| Rpt 3 X

  Guitar 1
    ph ph ph ph ph ph ph ph
E[--------------------------------|
B[-----8-----8-----8-----8\-------|
G[-7-7-----7-----7-----7----------|
D[--------------------------------|
A[--------------------------------|
E[--------------------------------|
 [Guitar 2
E[--------------------------------|
B[--------------------------------|
G[--------------------------------|
D[-----------------------------6--|
A[-------------------------5-6----|
E[--------------------------------|

 [----------PM-----------]
E-------------------------------|
B-------------------------------|
G-------------------------------|
D-----------------------------6-|
A-------------------------5/6---|
E-333333333333333333333333------|

 Rpt 4 X
 Rpt 12 X for guitar solo backing
 Rpt 4 X

  Guitar 1
  [----PM---]              [----PM---]          Pull up on trem
E[-------------------------------------------<5>-----|
B[---------------------------------------------------|
G[-2-222-222-5-4-0----------2-222-222-5-4-0----------|
D[-----------------4-0-2--------------------2--------|
A[---------------------------------------------------|
E[---------------------------------------------------|
 [Guitar 2
E[---------------------------------------------------|
B[---------------------------------------------------|
G[---------------------------------------------------|
D[------------------------2---------------------2----|
A[------------------------0---------------------0----|
E[---------------------------------------------------|

  Guitar 1
  [----PM---]              [----PM---]          Pull up on trem
E[-------------------------------------------<7><5>--|
B[------------------------------------------<7>------|
G[-2-222-222-5-4-0----------2-222-222-5-4-0----------|
D[-----------------4-0-2-----------------------------|
A[---------------------------------------------------|
E[---------------------------------------------------|
 [Guitar 2
E[---------------------------------------------------|
B[---------------------------------------------------|
G[---------------------------------------------------|
D[-----------------4-0-2--2----------------------2---|
A[------------------------0----------------------0---|
E[-------------------------------------------0-3-----|

 Rpt Palm muted version of Main Riff 2 X
 Rpt un-muted Main Riff

E-----------------------------------------12-12-|
B------12-10------------------------------12-12-|
G---11-------10----9----------------------------|
D-9-------------11---7-10----9----8---7---------|
A-------------------------11---10---9---8-------|
E-----------------------------------------------| 

 Rpt Verse and Chorus

  Guitar 1
  [------PM-----] [-----PM----]
E[---------------------------------|
B[---------------------------------|
G[---------------------------------|
D[---------------5-------------4\3-|
A[-4-4---4/5\4---3-4-4---4/5\4-2\1-|
E[-2-2-0-2/3\2p0---2-2-0-2/3\2-----|
 [
 [Guitar 2
E[---------------------------------|
B[---------------------------------|
G[---------------------------------|
D[---------------5-------------4\3-|
A[---------------3-------------2\1-|
E[---------------------------------| Rpt

E---------------------------------|
B---------------------------------|
G---------------------------------|
D---------------5-------------4\3-|
A-4-4---4-5-4---3-4-4---4-5-4-2\1-|
E-2-2-0-2-3-2p0---2-2-0-2-3-2-----|

  Guitar 1
E[---------------------------------|
B[---------------------------------|
G[---------------------------------|
D[---------------5-------------4\3-|
A[-4-4---4-5-4---3-4-4---4-5-4-2\1-|
E[-2-2-0-2-3-2p0---2-2-0-2-3-2-----|
 [Guitar 2
E[---------------------------------|
B[---------------------------------|
G[-------------------5-4-5-4-5-4-5-|
D[-------------------5-4-5-4-5-4-5-|
A[---------------------------------|
E[---------------------------------|

  Guitar 1
E[----------------------------------------------------|
B[------12-10-----------------------------------------|
G[---11-------10----9---------------------------------|
D[-9-------------11---7-10----9----8---10----9----8---|
A[-------------------------11---10---9----11---10---9-|
E[----------------------------------------------------|
 [Guitar 2
E[----------------------------------------------------|
B[------12-10-----------------------------------------|
G[---11-------10----9---------------------------------|
D[-9-------------11---7-5-----4----3---5-----4----3---|
A[----------------------3-----2----1---3-----2----1---|
E[----------------------------------------------------|


E---------------------|
B---------------------|
G---------------------|
D-5---4---3-----------|
A-3---2---1-----44-4--|
E-------------0-22-2--|


END





Comments


Popular Death Angel tabs & chords
A Room With A View Tabs
Bored Tabs
Five Steps Of Freedom Tabs
Road Mutants Tabs
Stop Tabs
Thrashers Tabs
Ultra Violence Intro Tabs
Ultra Violence Intro 2 Tabs
Veil Of Deception Tabs
A Room With A View Ukulele


Song lyrics



↑ Back to top | Tablatures and chords are parodies/interpretations of the original songs. You may use it for private study, scholarship, research or language learning purposes only
© 2014 AZChords.com Contact us | Privacy policy | DMCA | Add/correct tabs | Request tabs | Top 50 tabs