» » »

Im Bored Tabs (ver.2)

Artists:  A B C D E F G H I J K L M N O P Q R S T U V W X Y Z # 

Im Bored Tabs (ver.2)

Death Angel
Rating:
0/5 (0 votes)

Tabs too difficult? Try these video lessons and learn fast.
                Death Angel
I'm Bored
Frolic Through the Park

LEGEND:
    . = Palm mute   0h2 = Hammer-on  2p0 = Pull off


INTRO 1     x1
e|---------------------------------------------------------|
B|---------------------------------------------------------|
G|---------------------------------------------------------|
D|-2p0h2p0h2p0--------------------------------------2p0----|
A|-----------------------------------------------------2p0-|
E|-------------0000---3---00---2-------0000---3--0--------3|
               ....       ..           ....      .
e|--------------------------------------------|
B|--------------------------------------------|
G|--------------------------------------------|
D|-----------------------------------------5--|
A|----------------------------------------5---|
E|--0000-3---00--2-----0000----3---0--0h5-----|
    ....     ..        ....        .

INTRO 2/MAIN RIFF (Gtr. 1)     x Most of the song
e|-------------------------------------------------|
B|-------------------------------------------------|
G|-------------------------------------------------|
D|----------------------------------2p0h2p0h2p0----|
A|-------------------------------------------------|
E|--0000-3---00--2-----0000--3--0------------------|
    ....     ..        ....     .

INTRO 2 (Gtr. 2)     x8
e|-----------------------------------|
B|-----------------------------------|
G|-----------------------------------|
D|-----------------------------------|
A|-----------------------------------|
E|-00000000000000000000000000000000--|
   ................................


INTRO 2 (Gtr.3)      x4 (comes in at 0:27)
e|-----------------------------------|
B|-----------------------------------|
G|-----------------------------------|
D|-----------------------------------|
A|-----------------------------------|
E|-00000000000000000000000000000000--|
   ................................

RIFF 1  (Gtrs. 2 and 3)    x8
e|----------------------------------|
B|----------------------------------|
G|----------------------------------|
D|-------------------------------7--|
A|-------5-------4----------5----5--|
E|-0000--3---00--2----0000--3--0----|
   ....      ..       ....     .

VERSE (Gtr. 2)      (Play During Verse)
e|---------------------------{-12-12-12-12-|
B|---------------------------{-12-12-12-12-|
G|---------------------------{-12-12-12-12-|
D|---------------------------{-------------|
A|---------------------------{-------------|
E|---------------------------{-------------|
                              1st Ending

VERSE (Gtr. 2)
e|---------------------------{-------------|
B|---------------------------{----10-------|
G|---------------------------{----9p-------|
D|---------------------------{-------------|
A|---------------------------{-------------|
E|---------------------------{-------------|
                              2nd Ending

RIFF 1  (Gtrs. 2 and 3)    x2
e|----------------------------------|
B|----------------------------------|
G|----------------------------------|
D|-------------------------------7--|
A|-------5-------4----------5----5--|
E|-0000--3---00--2----0000--3--0----|
   ....      ..       ....     .


VERSE (Gtr. 2)      (Play During Verse)
e|---------------------------{-12-12-12-12-|
B|---------------------------{-12-12-12-12-|
G|---------------------------{-12-12-12-12-|
D|---------------------------{-------------|
A|---------------------------{-------------|
E|---------------------------{-------------|
                              1st Ending

VERSE (Gtr. 2)
e|---------------------------{-------------|
B|---------------------------{----10-------|
G|---------------------------{----9p-------|
D|---------------------------{-------------|
A|---------------------------{-------------|
E|---------------------------{-------------|
                              2nd Ending

VERSE (Gtr. 2)
e|---------------------------{-------------|
B|---------------------------{----10--9----|
G|---------------------------{----10--8----|
D|---------------------------{-------------|
A|---------------------------{-------------|
E|---------------------------{-------------|
                              3rd Ending

[PAUSE - "I'm Bored"]

RIFF 1  (Gtrs. 2 and 3)    x4
e|----------------------------------|
B|----------------------------------|
G|----------------------------------|
D|-------------------------------7--|
A|-------5-------4----------5----5--|
E|-0000--3---00--2----0000--3--0----|
   ....      ..       ....     .

VERSE (Gtr. 2)      (Play During Verse)
e|---------------------------{-12-12-12-12-|
B|---------------------------{-12-12-12-12-|
G|---------------------------{-12-12-12-12-|
D|---------------------------{-------------|
A|---------------------------{-------------|
E|---------------------------{-------------|
                              1st Ending

VERSE (Gtr. 2)
e|---------------------------{-------------|
B|---------------------------{----10-------|
G|---------------------------{----9p-------|
D|---------------------------{-------------|
A|---------------------------{-------------|
E|---------------------------{-------------|
                              2nd Ending

RIFF 1  (Gtrs. 2 and 3)    x2
e|----------------------------------|
B|----------------------------------|
G|----------------------------------|
D|-------------------------------7--|
A|-------5-------4----------5----5--|
E|-0000--3---00--2----0000--3--0----|
   ....      ..       ....     .


VERSE (Gtr. 2)      (Play During Verse)
e|---------------------------{-12-12-12-12-|
B|---------------------------{-12-12-12-12-|
G|---------------------------{-12-12-12-12-|
D|---------------------------{-------------|
A|---------------------------{-------------|
E|---------------------------{-------------|
                              1st Ending

VERSE (Gtr. 2)
e|---------------------------{-------------|
B|---------------------------{----10-------|
G|---------------------------{----9p-------|
D|---------------------------{-------------|
A|---------------------------{-------------|
E|---------------------------{-------------|
                              2nd Ending

VERSE (Gtr. 2)
e|---------------------------{-------------|
B|---------------------------{----10--9----|
G|---------------------------{----10--8----|
D|---------------------------{-------------|
A|---------------------------{-------------|
E|---------------------------{-------------|
                              3rd Ending

[Pause - "I'm Bored"]


RIFF 1  (Gtrs. 2 and 3)    x4
e|----------------------------------|
B|----------------------------------|
G|----------------------------------|
D|-------------------------------7--|
A|-------5-------4----------5----5--|
E|-0000--3---00--2----0000--3--0----|
   ....      ..       ....     .

RIFF 2 (All Gtrs.)   x1

e|---------------------------|
B|---------------------------|
G|---------------------------|
D|-2-------------------------|
A|-2-------------------------|
E|-0-------------------------|

SOLO*

END

that the entire song... have fun playing it.

NOTES:
-The whole song is in the key of E
-I couldn't figure out the solo properly, so i didnt post it to avoid
Confusion.  I do know that the high note at the end of the ascending
palm muted scale things ( at the beginning of the solo) is a G (G string, 12 fret).  I 
not exactly sure what scale it is in, but I think it is in E Major.
- I am 95%  sure that this sing is right (only 95 beacuse of the funky guitar verse part.)

LYRICS:

Guilty of no crime
Not enough yet too much time
I'm burning in this hell
Plans to buy and dreams to sell

Sitting by myself
Living life and loving life
But something bothers me
What to do - I can't believe

I'm bored

Life it's not so fair
Nothing here and nothing there
I'm waiting constantly
It's not the way life's meant to be

Boredom starts to set
I try so hard but it's all I get
Keep waiting all the time
I think I've reached
The end of the line

I'm bored
            
Tabs too difficult? Try these video lessons and learn fast.


comments powered by Disqus
↑ Back to top | Tablatures and chords are parodies/interpretations of the original songs. You may use it for private study, scholarship, research or language learning purposes only