array
(
    
'memory2' => 'memory2'
    'deadtofall' 
=> 'deadtofall'
)
Memory Tabs (ver. 3) by Dead To Fall @ AZ CHORDS.COM
» » »

Memory Tabs (ver.3)

Artists:  A B C D E F G H I J K L M N O P Q R S T U V W X Y Z # 

Memory Tabs (ver.3)

Dead To Fall
Rating:
0/5 (0 votes)

Hard to play? Try these video lessons and learn fast.
                -0----------------------------------------------------------------------------
-0-------------(mean ass pickslide)-------------------------------------------
-0----------------------------------------------------------------------------
 bothe guitars                                                                   

--8------8-------8-------------------------------------------------------------
---11-11---11-11---11-11---------------------------------------------------------
guitar 1                                                                     

-00-00-000-000-00-00----------------------------------------------------------
-00-00-000-000-00-00----------------------------------------------------------
-00-00-000-000-00-00----------------------------------------------------------
 .. .. ... ... .. ..                                                          
guitar 2 

---------------------------------------|--------------------------------------
---8--8--8--8------8--8--8--8----------|--------------------------------------
---11-11-11-11-----11-11-11-11---------|--------------------------------------
-00-------------00-------------000-000-|-00-------00-----000-000--------------
-00-------------00-------------000-000-|-00-------00-----000-000--------------
-00-------------00-------------000-000-|-00-------00-----000-000--------------
 ..             ..  Guitar 1   ... ...   ..       ..     ... ... guitar 2     

-------888-777-555-777------666-555-444-555-----------------------------------
-55555-----------------3333---------------------------------------------------
 not sure about this part                                                     

----------------------------|-------------------------------------------------
----------------------------|-------------------------------------------------
----------------------------|-------------------------------------------------
-00------4-------00---------|-000-000-000-000-000-000-------------------------
-00---4h5-5-4h5--00---------|-000-000-000-000-000-000-------------------------
-00--------------00---------|-000-000-000-000-000-000-------------------------
 ..              ..            ... ... ... ... ... ...   then repeat 1st part  

---------------------------------------|--------------------------------------
----8--8--8--8-----8--8--8--8----------|--------------------------------------
----11-11-11-11----11-11-11-11---------|--------------------------------------
-00-------------00------------000-000--|-00-00---------00-00-------000-000----
-00-------------00------------000-000--|-00-00---------00-00-------000-000----
-00-------------00------------000-000--|-00-00---------00-00-------000-000----
 ..             ..   guitar 1 ... ...    .. .. guitar 2.. ..       ... ...    

-00-------------00------------000-000-----------------------------------------
-00-------------00------------000-000-----------------------------------------
-00-------------00------------000-000-----------------------------------------
 ..             ..            ... ...    BOTH GUITARS
            
Hard to play? Try these video lessons and learn fast. | Correct




comments powered by Disqus
↑ Back to top | Tablatures and chords are parodies/interpretations of the original songs. You may use it for private study, scholarship, research or language learning purposes only