» » »

Dead To Fall, Memory Tabs (ver.1)

Artists:  A B C D E F G H I J K L M N O P Q R S T U V W X Y Z # 

Memory Tabs (ver.1)

Dead To Fall Tabs
Rating:
0/5 (0 votes)
Memory lessons Tabs too difficult? Try these video lessons and learn fast
                drop d



intro:
e|----|
B|----|
G|----|
D|----|
A|----|
E|-0~-|


e|-------------------|
B|-6--5--6--5--6--5--|
G|-------------------|
D|-------------------|
A|-------------------|
E|-------------------|


e|-------------------|
B|-------------------|
G|-------------------|
D|-------------------|
A|-------------------|
E|-00-0000-00-000----|


verse
e|---------------------------------------------------|
B|----6--5--6--5------6--5--6--5---------6--5--6--5--|
G|---------------------------------------------------|
D|---------------------------------------------------|
A|---------------------------------------------------|
E|-00-------------00--------------00000--------------|


e|------------------------------------------------------|
B|------------------------------------------------------|
G|------------------------------------------------------|
D|-------777775555544444----------777775555544444-------|  
A|--55555---------------5555533333---------------77777--|
E|------------------------------------------------------|
   * i dont know if this is correct but it sounds ok*


e|--------------------|
B|--------------------|
G|--------------------|
D|--------------------|
A|--------------------|
E|--0-0--0-0-000-0-0--|


e|----------------------------------|
B|----------------------------------|
G|----------------------------------|
D|----------------------5--4--3--2--|
A|------------ 4--------5--4--3--2--|
E|-------4--5-----5--4--5--4--3--2--|
E|--0-0-----------------------------|


outro
e|--------------------|
B|--------------------|
G|--------------------|
D|--------------------|
A|--------------------|
E|--0-0--0-0-000-0-0--|




123 GO!
            

comments powered by Disqus
↑ Back to top | Dead To Fall Tabs for Memory. Lyrics for acoustic guitar and electric guitar. Tablatures and chords are parodies/interpretations of the original songs. You may use it for private study, scholarship, research or language learning purposes only