» » »

Dead To Fall, Memory Tabs (ver.2)

Artists:  A B C D E F G H I J K L M N O P Q R S T U V W X Y Z # 

Memory Tabs (ver.2)

Dead To Fall Tabs
Rating:
0/5 (0 votes)
Memory lessons Tabs too difficult? Try these video lessons and learn fast
                Tuning: B F# B E G# C#

i put a part from each of the vocals in there to help u find out which riff is which

intro: guitar 1
|--------------------------------------------|
|--9-------9-------9--------9-------9----9---|
|----12-12---12-12----12-12---12-12---12--12-|
|--------------------------------------------|
|--------------------------------------------|
|--------------------------------------------|

intro: guitar 2
|---------------------|
|---------------------|
|---------------------|
|---------------------|
|---------------------|
|-00---00----000-000--|
     ^palm-muted^

riff 1:guitar 1 and 2    (you're on your own this time....)
|--------------------------------------------|
|-----9--9--9--9-------9--9--9--9------------|
|-----12-12-12-12------12-12-12-12-----------|
|--------------------------------------------|
|--------------------------------------------|
|--00---------------00---------------000-000-|
    ^opens on low B string are plam muted^

riff 2:guitar 1   (taken advantage of forced "i love you's".....)
|--------------------------------|
|--------------------------------|
|------------------5--3--2-------|
|-0--5--3--2----------------3--0-|
|------------3--1----------------|
|--------------------------------|
     ^each note is fast picked several times^

riff 2: guitar 2 (taken advantage of forced "i love you's".....)
|-----------------------------------|
|-----------------------------------|
|-----------------------------------|
|--0--5--3--2--------5--3--2--------|
|--------------3--1-----------3--5--|
|-----------------------------------|
     ^each note is fast picked several times^

riff 3: guitar 1 and 2   (love is such a game to you...)
|---------------------------------------------------------------|
|---------------------------------------------------------------|
|---------3----------------2----------------2----------3-2------|
|-----2-3---3-2-3------2-3---3-2-3------2-3----3-2-3-------3-2--|
|---------------------------------------------------------------|
|--00---------------00---------------00-------------------------|
        ^opens on low B are palm muted^

riff 4: guitar 1 and 2   (one....more....time....for....the....)
|----------------------------------------|-------------|
|----------------------------------------|-------------|
|--------------------------------3-2-----|-5-3-2-------|
|------------------------------------3-2-|-------3-----|
|----------------------------------------|-------------|
|--0000-0000-0000-0000-0000-000----------|-------------|
  ^opens on low B are plam muted^       ^after 4 times of the first part, play that^

those are all the riffs in that song
i think u should be able to put them in order,
DTF RULES!!!!!!!
            

comments powered by Disqus
↑ Back to top | Dead To Fall Tabs for Memory. Lyrics for acoustic guitar and electric guitar. Tablatures and chords are parodies/interpretations of the original songs. You may use it for private study, scholarship, research or language learning purposes only