>
 >
Bastard Set Of Dreams 1

Bastard Set Of Dreams 1 Guitar Tabs

Dead To Fall - Bastard Set Of Dreams 1 chords, tabs, tablatures, lyrics

Guitar lessons | Add/correct | Request | Top 50 tabs Artists:  A B C D E F G H I J K L M N O P Q R S T U V W X Y Z 0-9

Bastard Set Of Dreams 1 Guitar Tabs – Dead To Fall

CD, Sheet music, Poster

Do you like Bastard Set Of Dreams 1? Share with your friends now
Bass TabsTabsTabs v2
-----------------------------------------------------------------------------
                       Bastard Set of Dreams-Dead to Fall
                       from the album-Villiany and Virtue
-----------------------------------------------------------------------------

Intro guitar 1 4x and guitar 2 2x
|-----------------------------------|
|-----------------------------------|
|-7----------5---------8------------|
|-x 16 times-x 8 times-x 8 times-0~-|
|-5----------3---------6---------0~-|
|--------------------------------0~-|

guitar 2 does this last 2 times

|---------------------------------------|
|---------------------------------------|
|-14----------12---------15-------------|
|-12 16 times-10 8 times-13 8 times--0~-|
|------------------------------------0~-|
|------------------------------------0~-|

both guitars 4x. on the last time let the palm mutes ring
|-------------------------------------------------------|
|-------------------------------------------------------|
|-7----------5---------8--------------------------------|
|-x 16 times-x 8 times-x 8 times------------------------|
|-5----------3---------6---------00000-00000-0000-00000-|
|--------------------------------00000-00000-0000-00000-|
                                 ..... ..... .... .....

both guitars 3x
|----------------------------|
|----------------------------|
|----------------------------|
|----------------------------|
|-00000~-00000~-0000~-00000~-|
|-00000~-00000~-0000~-00000~-|
  .....  .....  ....  .....

guitar 1 does this 1x
|----------------------------|
|----------------------------|
|----------------------------|
|--------8\7-----8\7---------|
|--------6\5-----6\5-8p7-1-5-|
|-00-000-----000-----8p7-1-5-|
  .. ...     ...

then both guitars do the riff above
then both do the riff above but let the 1 ring and leave out the 5
then both do the fiff above again

then
|------------------------------|
|------------------------------|
|------------------------------|
|--------8\7-----8-7-----------|
|--------6\5-----6-5-8-7-1~-5~-|
|-00-000-----000-----8-7-1~-5~-|
  .. ...     ...

both guitars 4x (those are 10's and 12's)
|-------------------------|
|-------------------------|
|-------------------------|
|-------------------------|
|---555666---------101010-|
|-0--------0-121212-------|

both guitars 4x
|-------------------------------------------|
|-------------------------------------------|
|-------------------------------------------|
|-------------------------------------------|
|-------------------------------------------|
|-000-000-000-0-----000-0-0-0-0-000-0-0-0-0-|
  ... ... ... .     ... . . . . ... . . . .

both guitars 2x, guitar 1 4x
|--------------------|
|--------------------|
|--------------------|
|--------------------|
|--------------------|
|-00-0-0-0-0-0-0-000-|
  .. . . . . . . ...

guitar 2 2x (2 guitars are haromonizing this part but you can do it with 1)
|-------------------------|
|-------------------------|
|-------------------------|
|-7---8-10--8-7-5--7-5-2--|
|-8--10-12-10-8-7--8-7-3--|
|-------------------------|
note (this part might be played on the D and G strings instead of the A and D strings, 
not sure, just try both and see which one sounds better)

both guitars 8x
|---------------------------|
|---------------------------|
|---------------------------|
|---------------------------|
|----555666----------101010-|
|-00--------00-121212-------|
  ..        ..

guitars 1 and 2 alternate here
|------------------------------------------------------------|
|------------------------------------------------------------|
|------------------------------------------------------------|
|------------------------------------------------------------|
|-00000-guitar 1-00000-guitar 2-0000-guitar 1-00000-guitar 2-|
|-00000----------00000----------0000----------00000----------|
  .....          .....          ....          .....

both guitars 4x
|----------------------------|
|----------------------------|
|----------------------------|
|----------------------------|
|-00000~-00000~-0000~-00000~-|
|-00000~-00000~-0000~-00000~-|

and thats it, I hope this tab helped. all the other tabs I found were way off, so I 
it out myself.

Here's the intro to "eternal gates of hell" by dead to fall. I couldn't find a tab for 
either so I started on it and heres what I got so far.

|---------------------------------------------------------------|
|---------------------------------------------------------------|
|---------------------------------------------------------------|
|----7-----8---7-----7----5---7-----7-----8---7-----------------|
|----8----10---8-----8----7---8-----8----10---8-----8---7---5h7-|
|-00---00----0----00---00---0----00---00----0----00---0---0-----|
  ..   ..    .    ..   ..   .    ..   ..    .    ..   .   .





Comments


Popular Dead To Fall tabs & chords
Bastard Set Of Dreams Bass Tabs
Eternal Gates Of Hell Bass Tabs
All My Heroes Have Failed Me Tabs
Balance Theory Tabs
Bastard Set Of Dreams Tabs
Cost Of A Good Impression Tabs
Memory Tabs
Memory 1 Tabs
Preying On The Helpless Tabs
Torn Self Ready Set Circle Pit Tabs


Song lyrics



↑ Back to top | Tablatures and chords are parodies/interpretations of the original songs. You may use it for private study, scholarship, research or language learning purposes only
© 2014 AZChords.com Contact us | Privacy policy | DMCA | Add/correct tabs | Request tabs | Top 50 tabs