>
 >
Bastard Set Of Dreams

Bastard Set Of Dreams Guitar Tabs

Dead To Fall - Bastard Set Of Dreams chords, tabs, tablatures, lyrics

Guitar lessons | Add/correct | Request | Top 50 tabs Artists:  A B C D E F G H I J K L M N O P Q R S T U V W X Y Z 0-9

Bastard Set Of Dreams Guitar Tabs – Dead To Fall

CD, Sheet music, Poster

Do you like Bastard Set Of Dreams? Share with your friends now
Bass TabsTabsTabs v2
#------------------------------------------------------------------------------##

                              BASTARD SET OF DREAMS
                           As recorded by Dead To Fall
                     (From the 2004 Album VILLIANY & VIRTUE)

Words and Music by Dead To Fall
Arranged by Dead To Fall

Gtr I (B Gb B E Ab Db) - 'Untitled'
Gtr II (B Gb B E Ab Db) - 'Untitled'
Gtr III (B Gb B E Ab Db) - 'Untitled'
Gtr IV (B Gb B E Ab Db) - 'Untitled'
Gtr V (B Gb B E Ab Db) - 'Untitled'
Gtr VI (B Gb B E Ab Db) - 'Untitled'

 Intro
  Pit-Worthy Q=130
  N.C.
 4/4
  Gtr I
  S S S S S S S S S S S S S S S S
|---------------------------------|
|---------------------------------|
|-7-7-7-7-7-7-7-7-7-7-7-7-7-7-7-7-|
|-x-x-x-x-x-x-x-x-x-x-x-x-x-x-x-x-|
|-5-5-5-5-5-5-5-5-5-5-5-5-5-5-5-5-|
|---------------------------------|
|
| Gtr II
| W
|---------------------------------|
|---------------------------------|
|---------------------------------|
|---------------------------------|
|---------------------------------|
|---------------------------------|


                                    D5
  S S S S S S S S S S S S S S S S   W          +W
|---------------------------------|----------|--------|
|---------------------------------|----------|--------|
|-5-5-5-5-5-5-5-5-8-8-8-8-8-8-8-8-|----------|--------|
|-x-x-x-x-x-x-x-x-x-x-x-x-x-x-x-x-|-0--------|-(0)----|
|-3-3-3-3-3-3-3-3-6-6-6-6-6-6-6-6-|-0--------|-(0)----|
|---------------------------------|-0--------|-(0)----|
|
| W                                 W          +W
|---------------------------------|----------|--------|
|---------------------------------|----------|--------|
|---------------------------------|----------|--------|
|---------------------------------|-0--------|-(0)----|
|---------------------------------|-0--------|-(0)----|
|---------------------------------|-0--------|-(0)----|


  N.C.
  S S S   S S S S S S S S S S S S S
|-----------------------------------|
|-----------------------------------|
|-7-7-7---7-7-7-7-7-7-7-7-7-7-7-7-7-|
|-x-x-x---x-x-x-x-x-x-x-x-x-x-x-x-x-|
|-5-5-5---5-5-5-5-5-5-5-5-5-5-5-5-5-|
|-----------------------------------|
|
| E   H..
|-----------------------------------|
|-----------------------------------|
|-----------------------------------|
|-0---------------------------------|
|-0---------------------------------|
|-0---------------------------------|


                                    D5
  S S S S S S S S S S S S S S S S   W          +W
|---------------------------------|----------|--------|
|---------------------------------|----------|--------|
|-5-5-5-5-5-5-5-5-8-8-8-8-8-8-8-8-|----------|--------|
|-x-x-x-x-x-x-x-x-x-x-x-x-x-x-x-x-|-0--------|-(0)----|
|-3-3-3-3-3-3-3-3-6-6-6-6-6-6-6-6-|-0--------|-(0)----|
|---------------------------------|-0--------|-(0)----|
|
| W                                 W          +W
|---------------------------------|----------|--------|
|---------------------------------|----------|--------|
|---------------------------------|----------|--------|
|---------------------------------|-0--------|-(0)----|
|---------------------------------|-0--------|-(0)----|
|---------------------------------|-0--------|-(0)----|


  N.C.
   S  S  S  S  S  S  S  S  S  S  S  S  S  S  S  S
|-------------------------------------------------|
|-15-15-15-15-15-15-15-15-15-15-15-15-15-15-15-15-|
|--x--x--x--x--x--x--x--x--x--x--x--x--x--x--x--x-|
|-12-12-12-12-12-12-12-12-12-12-12-12-12-12-12-12-|
|-------------------------------------------------|
|-------------------------------------------------|
|
|  S  S  S  S  S  S  S  S  S  S  S  S  S  S  S  S
|-------------------------------------------------|
|-------------------------------------------------|
|-14-14-14-14-14-14-14-14-14-14-14-14-14-14-14-14-|
|--x--x--x--x--x--x--x--x--x--x--x--x--x--x--x--x-|
|-12-12-12-12-12-12-12-12-12-12-12-12-12-12-12-12-|
|-------------------------------------------------|


                                                    D5
   S  S  S  S  S  S  S  S  S  S  S  S  S  S  S  S   W          +W
|-------------------------------------------------|----------|--------|
|-13-13-13-13-13-13-13-13-16-16-16-16-16-16-16-16-|----------|--------|
|--x--x--x--x--x--x--x--x--x--x--x--x--x--x--x--x-|----------|--------|
|-10-10-10-10-10-10-10-10-13-13-13-13-13-13-13-13-|-0--------|-(0)----|
|-------------------------------------------------|-0--------|-(0)----|
|-------------------------------------------------|-0--------|-(0)----|
|
|  S  S  S  S  S  S  S  S  S  S  S  S  S  S  S  S   W          +W
|-------------------------------------------------|----------|--------|
|-------------------------------------------------|----------|--------|
|-12-12-12-12-12-12-12-12-15-15-15-15-15-15-15-15-|----------|--------|
|--x--x--x--x--x--x--x--x--x--x--x--x--x--x--x--x-|-0--------|-(0)----|
|-10-10-10-10-10-10-10-10-13-13-13-13-13-13-13-13-|-0--------|-(0)----|
|-------------------------------------------------|-0--------|-(0)----|


  N.C.
   S  S  S  S  S  S  S  S  S  S  S  S  S  S  S  S
|-------------------------------------------------|
|-15-15-15-15-15-15-15-15-15-15-15-15-15-15-15-15-|
|--x--x--x--x--x--x--x--x--x--x--x--x--x--x--x--x-|
|-12-12-12-12-12-12-12-12-12-12-12-12-12-12-12-12-|
|-------------------------------------------------|
|-------------------------------------------------|
|
|  S  S  S  S  S  S  S  S  S  S  S  S  S  S  S  S
|-------------------------------------------------|
|-------------------------------------------------|
|-14-14-14-14-14-14-14-14-14-14-14-14-14-14-14-14-|
|--x--x--x--x--x--x--x--x--x--x--x--x--x--x--x--x-|
|-12-12-12-12-12-12-12-12-12-12-12-12-12-12-12-12-|
|-------------------------------------------------|


                                                    D5
                                                               Gtr VI
                                                               TP
   S  S  S  S  S  S  S  S  S  S  S  S  S  S  S  S   W          W
|-------------------------------------------------|----------|-------||
|-13-13-13-13-13-13-13-13-16-16-16-16-16-16-16-16-|----------|-------||
|--x--x--x--x--x--x--x--x--x--x--x--x--x--x--x--x-|----------|-------||
|-10-10-10-10-10-10-10-10-13-13-13-13-13-13-13-13-|-0--------|-x\----||
|-------------------------------------------------|-0--------|-x\----||
|-------------------------------------------------|-0--------|-x\----||
|
|                                                              Gtr VI
|                                                              TP
|  S  S  S  S  S  S  S  S  S  S  S  S  S  S  S  S   W          W
|-------------------------------------------------|----------|-------||
|-------------------------------------------------|----------|-------||
|-12-12-12-12-12-12-12-12-15-15-15-15-15-15-15-15-|----------|-------||
|--x--x--x--x--x--x--x--x--x--x--x--x--x--x--x--x-|-0--------|-x\----||
|-10-10-10-10-10-10-10-10-13-13-13-13-13-13-13-13-|-0--------|-x\----||
|-------------------------------------------------|-0--------|-x\----||


   "Take your schemes.."
    N.C.
    Gtr I
     S  S  S  S  S  S  S  S  S  S  S  S  S  S  S  S    S  S  S  S  S  S  S  S  S  S  S  S  S  S  S  S
||--------------------------------------------------|-------------------------------------------------|
||o-------------------------------------------------|-------------------------------------------------|
||--14-14-14-14-14-14-14-14-14-14-14-14-14-14-14-14-|-12-12-12-12-12-12-12-12-15-15-15-15-15-15-15-15-|
||---x--x--x--x--x--x--x--x--x--x--x--x--x--x--x--x-|--x--x--x--x--x--x--x--x--x--x--x--x--x--x--x--x-|
||o-12-12-12-12-12-12-12-12-12-12-12-12-12-12-12-12-|-10-10-10-10-10-10-10-10-13-13-13-13-13-13-13-13-|
||--------------------------------------------------|-------------------------------------------------|
|
|   Gtr II
|    S  S  S  S  S  S  S  S  S  S  S  S  S  S  S  S    S  S  S  S  S  S  S  S  S  S  S  S  S  S  S  S
||--------------------------------------------------|-------------------------------------------------|
||o-------------------------------------------------|-------------------------------------------------|
||---7--7--7--7--7--7--7--7--7--7--7--7--7--7--7--7-|--5--5--5--5--5--5--5--5--8--8--8--8--8--8--8--8-|
||---x--x--x--x--x--x--x--x--x--x--x--x--x--x--x--x-|--x--x--x--x--x--x--x--x--x--x--x--x--x--x--x--x-|
||o--5--5--5--5--5--5--5--5--5--5--5--5--5--5--5--5-|--3--3--3--3--3--3--3--3--6--6--6--6--6--6--6--6-|
||--------------------------------------------------|-------------------------------------------------|


  1.,2.,3.
  D5
  PM------------------|       PM----------------|
  S S S S E E S S S S E E   E S S S S E S S S S E E     4x
|-------------------------|-----------------------------||
|-------------------------|----------------------------o||
|-------------------------|-----------------------------||
|-------------------------|-----------------------------||
|-0-0-0-0-0---0-0-0-0-0---|---0-0-0-0---0-0-0-0-0------o||
|-0-0-0-0-0---0-0-0-0-0---|---0-0-0-0---0-0-0-0-0-------||
|
| PM------------------|       PM----------------|
| S S S S E E S S S S E E   E S S S S E S S S S E E     4x
|-------------------------|-----------------------------||
|-------------------------|----------------------------o||
|-------------------------|-----------------------------||
|-------------------------|-----------------------------||
|-0-0-0-0-0---0-0-0-0-0---|---0-0-0-0---0-0-0-0-0------o||
|-0-0-0-0-0---0-0-0-0-0---|---0-0-0-0---0-0-0-0-0-------||


    4.
    D5
    PM------|   PM------|       PM----|   PM------|
    S S S S E E S S S S E E   E S S S S E S S S S E E  4x
||--------------------------|--------------------------||
||o-------------------------|-------------------------o||
||--------------------------|--------------------------||
||--------------------------|--------------------------||
||o-0-0-0-0-0---0-0-0-0-0---|---0-0-0-0---0-0-0-0-0---o||
||--0-0-0-0-0---0-0-0-0-0---|---0-0-0-0---0-0-0-0-0----||
|
|   PM------|   PM------|       PM----|   PM------|
|   S S S S E E S S S S E E   E S S S S E S S S S E E  4x
||--------------------------|--------------------------||
||o-------------------------|-------------------------o||
||--------------------------|--------------------------||
||--------------------------|--------------------------||
||o-0-0-0-0-0---0-0-0-0-0---|---0-0-0-0---0-0-0-0-0---o||
||--0-0-0-0-0---0-0-0-0-0---|---0-0-0-0---0-0-0-0-0----||


  Homicide Q=187
  D5                                      Eb5G5
  PM--------------|     PM----|
  S S S   S S S S S E E S S S S   E E E E Q  Q
|-------------------------------|---------------||
|-------------------------------|---------------||
|-------------------------------|---------------||
|-------------------------------|---------------||
|-0-0-0---0-0-0-0-0-6-5-0-0-0-0-|-5-3-1-0-1--5--||
|-0-0-0---0-0-0-0-0-----0-0-0-0-|---------1--5--||
|
| E   H..                         H       Q  Q
|-------------------------------|---------------||
|-------------------------------|---------------||
|-------------------------------|---------------||
|-------------------------------|---------------||
|-0-----------------------------|---------1--5--||
|-0-----------------------------|---------1--5--||


 "Sell your image.."
  D5                                    Eb5G5
  Gtrs I, II
  PM------------|     PM----|
  S S S S S S S S E E S S S S   E E E E Q  Q
|-----------------------------|---------------|
|-----------------------------|---------------|
|-----------------------------|---------------|
|-----------------------------|---------------|
|-0-0-0-0-0-0-0-0-6-5-0-0-0-0-|-5-3-1-0-1--5--|
|-0-0-0-0-0-0-0-0-----0-0-0-0-|---------1--5--|


  D5                                    Eb5
  PM------------|     PM----|
  S S S S S S S S E E S S S S   E E E E Q  Q
|-----------------------------|-----------------|
|-----------------------------|-----------------|
|-----------------------------|-----------------|
|-----------------------------|-----------------|
|-0-0-0-0-0-0-0-0-6-5-0-0-0-0-|-5-3-1-0-1--1----|
|-0-0-0-0-0-0-0-0-----0-0-0-0-|---------1--1----|


  D5                                    Eb5G5
  PM------------|     PM----|
  S S S S S S S S E E S S S S   E E E E Q  Q
|-----------------------------|---------------|
|-----------------------------|---------------|
|-----------------------------|---------------|
|-----------------------------|---------------|
|-0-0-0-0-0-0-0-0-6-5-0-0-0-0-|-5-3-1-0-1--5--|
|-0-0-0-0-0-0-0-0-----0-0-0-0-|---------1--5--|


  D5                            BbsAsuBb5A5
  PM------------|     PM----|
  S S S S S S S S E E S S S S   Q  Q  Q  Q
|-----------------------------|---------------|
|-----------------------------|---------------|
|-----------------------------|---------------|
|-----------------------------|---------------|
|-0-0-0-0-0-0-0-0-6-5-0-0-0-0-|-6--5--8--7----|
|-0-0-0-0-0-0-0-0-----0-0-0-0-|-8--7--8--7----|


  Eb5             G5
 2/4
  H      +H       H      +H
|------|--------|------|--------||
|------|--------|------|--------||
|------|--------|------|--------||
|------|--------|------|--------||
|-1----|-(1)----|-5----|-(5)----||
|-1----|-(1)----|-5----|-(5)----||


 Bridge
  N.C.
 3/4
  Gtr I
  S S S S S S S S S S S S   S S S S S S S S  S  S  S  S
|-------------------------|-----------------------------|
|-------------------------|-----------------------------|
|-------------------------|-----------------------------|
|-------------------------|-----------------------------|
|---------5-5-5-5-6-6-6-6-|-----------------10-10-10-10-|
|-0-0-0-0-----------------|-0-0-0-0-8-8-8-8-------------|
|
| Gtr II
| S S S S S S S S S S S S   S S S S S S S S  S  S  S  S
|-------------------------|-----------------------------|
|-------------------------|-----------------------------|
|-------------------------|-----------------------------|
|-------------------------|-----------------------------|
|---------5-5-5-5-6-6-6-6-|-----------------10-10-10-10-|
|-0-0-0-0-----------------|-0-0-0-0-8-8-8-8-------------|


  S S S S S S S S S S S S   S S S S S S S S  S  S  S  S
|-------------------------|------------------------------|
|-------------------------|------------------------------|
|-------------------------|------------------------------|
|-------------------------|------------------------------|
|---------5-5-5-5-6-6-6-6-|-----------------10-10-10-10--|
|-0-0-0-0-----------------|-0-0-0-0-8-8-8-8--------------|
|
| S S S S S S S S S S S S   S S S S S S S S  S  S  S  S
|-------------------------|------------------------------|
|-------------------------|------------------------------|
|-------------------------|------------------------------|
|-------------------------|------------------------------|
|---------5-5-5-5-6-6-6-6-|-----------------10-10-10-10--|
|-0-0-0-0-----------------|-0-0-0-0-8-8-8-8--------------|


  N.C.
  S S S S S S S S S S S S   S S S S S S S S  S  S  S  S
|-------------------------|-----------------------------|
|-------------------------|-----------------------------|
|-------------------------|-----------------------------|
|-------------------------|-----------------------------|
|---------5-5-5-5-6-6-6-6-|-----------------10-10-10-10-|
|-0-0-0-0-----------------|-0-0-0-0-8-8-8-8-------------|
|
| S S S S S S S S S S S S   S S S S S S S S  S  S  S  S
|-------------------------|-----------------------------|
|-------------------------|-----------------------------|
|-------------------------|-----------------------------|
|---------3-3-3-3-5-5-5-5-|---------0-0-0-0--5--5--5--5-|
|-------------------------|-----------------------------|
|-0-0-0-0-----------------|-0-0-0-0---------------------|


  S S S S S S S S S S S S   S S S S S S S S  S  S  S  S
|-------------------------|--------------------------------|
|-------------------------|--------------------------------|
|-------------------------|--------------------------------|
|-------------------------|--------------------------------|
|---------5-5-5-5-6-6-6-6-|-----------------10-10-10-10----|
|-0-0-0-0-----------------|-0-0-0-0-8-8-8-8----------------|
|
| S S S S S S S S S S S S   S S S S S S S S  S  S  S  S
|-------------------------|--------------------------------|
|-------------------------|--------------------------------|
|-------------------------|--------------------------------|
|---------3-3-3-3-5-5-5-5-|---------0-0-0-0--5--5--5--5----|
|-------------------------|--------------------------------|
|-0-0-0-0-----------------|-0-0-0-0------------------------|


  D5
 2/4
  Gtrs I, II
  PM------------------------|
  S S S S S S S S   S S S S E E   H
|-----------------|-------------|------||
|-----------------|-------------|------||
|-----------------|-------------|------||
|-----------------|-------------|------||
|-0-0-0-0-0-0-0-0-|-0-0-0-0-0---|------||
|-0-0-0-0-0-0-0-0-|-0-0-0-0-0---|------||


   "..'Til it falls apart.."
    D5
   4/4
    PM------------------------------------------------------|
    S S E E E E E S S E   E E E E S S S S S S S S   S S S S E E H     3x
||----------------------|-------------------------|-------------------||
||o---------------------|-------------------------|------------------o||
||----------------------|-------------------------|-------------------||
||----------------------|-------------------------|-------------------||
||o-0-0-0-0-0-0-0-0-0-0-|-0-0-0-0-0-0-0-0-0-0-0-0-|-0-0-0-0-0--------o||
||--0-0-0-0-0-0-0-0-0-0-|-0-0-0-0-0-0-0-0-0-0-0-0-|-0-0-0-0-0---------||


                                    "A thousand open ears.."
                                     Dancefight Q=130
  D5                                 D5
 3/4                                4/4
  Gtr I
  PM-----------|                     PM--------------------------|
  S  S E E E E E   H.                E E H.        E E E E E. E. E
|----------------|----------------||-------------|-----------------|
|----------------|----------------||-------------|-----------------|
|----------------|----------------||-------------|-----------------|
|----------------|----------------||-------------|-----------------|
|-0--0-0-0-0-0-0-|----------------||-0-0---------|---0-0-0-0--0--0-|
|-0--0-0-0-0-0-0-|----------------||-0-0---------|---0-0-0-0--0--0-|
|
| Gtr II
|                  PM--------------------------------------------|
| H.               S  S E E E E E    E E H.        E E E E E. E. E
|----------------|----------------||-------------|-----------------|
|----------------|----------------||-------------|-----------------|
|----------------|----------------||-------------|-----------------|
|----------------|----------------||-------------|-----------------|
|----------------|-0--0-0-0-0-0-0-||-0-0---------|---0-0-0-0--0--0-|
|----------------|-0--0-0-0-0-0-0-||-0-0---------|---0-0-0-0--0--0-|


  PM----|                    PM--------------------------|
  S S E H.        W          E E H.        E E E E E. E. E
|---------------|----------|-------------|------------------|
|---------------|----------|-------------|------------------|
|---------------|----------|-------------|------------------|
|---------------|----------|-------------|------------------|
|-0-0-0---------|----------|-0-0---------|---0-0-0-0--0--0--|
|-0-0-0---------|----------|-0-0---------|---0-0-0-0--0--0--|
|
| PM--|                      PM--------------------------|
| S S E H.        W          E E H.        E E E E E. E. E
|---------------|----------|-------------|------------------|
|---------------|----------|-------------|------------------|
|---------------|----------|-------------|------------------|
|---------------|----------|-------------|------------------|
|-0-0-0---------|----------|-0-0---------|---0-0-0-0--0--0--|
|-0-0-0---------|----------|-0-0---------|---0-0-0-0--0--0--|


                             Gm          Am    Bb       Am     Gm
  PM--|
  S S E H.        W           H.          Q     H        Q      Q
|---------------|----------|-----------------|----------------------|
|---------------|----------|-----------------|----------------------|
|---------------|----------|-----------------|----------------------|
|---------------|----------|--8----------10--|-12-------10------8---|
|-0-0-0---------|----------|-10----------12--|-13-------12-----10---|
|-0-0-0---------|----------|-----------------|----------------------|
|
| PM----|                     PM----------------------------------|
| S S E H.        W           E  E H.           E E E E  E. E.    E
|---------------|----------|-----------------|----------------------|
|---------------|----------|-----------------|----------------------|
|---------------|----------|-----------------|----------------------|
|---------------|----------|-----------------|----------------------|
|-0-0-0---------|----------|--0--0-----------|----0-0-0--0--0-----0-|
|-0-0-0---------|----------|--0--0-----------|----0-0-0--0--0-----0-|


  F            Gm    F    D      Gm          Am    Bb       Am     Gm
  H.            Q    H    H       H.          Q     H        Q      Q
|------------------|-----------|-----------------|----------------------|
|------------------|-----------|-----------------|----------------------|
|------------------|-----------|-----------------|----------------------|
|-7-------------8--|-7----4----|--8----------10--|-12-------10------8---|
|-8------------10--|-8----5----|-10----------12--|-13-------12-----10---|
|------------------|-----------|-----------------|----------------------|
|
| PM-----|                        PM----------------------------------|
| S  S E H.          W            E  E H.           E E E E  E. E.    E
|------------------|-----------|-----------------|----------------------|
|------------------|-----------|-----------------|----------------------|
|------------------|-----------|-----------------|----------------------|
|------------------|-----------|-----------------|----------------------|
|-0--0-0-----------|-----------|--0--0-----------|----0-0-0--0--0-----0-|
|-0--0-0-----------|-----------|--0--0-----------|----0-0-0--0--0-----0-|


  F            Gm    F    D
  H.            Q    H    H
|------------------|-----------|
|------------------|-----------|
|------------------|-----------|
|-7-------------8--|-7----4----|
|-8------------10--|-8----5----|
|------------------|-----------|
|
| PM-----|
| S  S E H.          W
|------------------|-----------|
|------------------|-----------|
|------------------|-----------|
|------------------|-----------|
|-0--0-0-----------|-----------|
|-0--0-0-----------|-----------|


    Punch & Kick Q=187
    D5  N.C.              D5  N.C.
   3/4
    PM|                   PM|
    E E S S S S S S S S   E E S S S S  S  S  S  S    4x
||----------------------|----------------------------||
||o---------------------|---------------------------o||
||----------------------|----------------------------||
||----------------------|----------------------------||
||o-0-0-5-5-5-5-6-6-6-6-|-0-0---------10-10-10-10---o||
||--0-0-----------------|-0-0-8-8-8-8----------------||
|
|   PM|                   PM|
|   E E H                 E E H                      4x
||----------------------|----------------------------||
||o---------------------|---------------------------o||
||----------------------|----------------------------||
||----------------------|----------------------------||
||o-0-0-----------------|-0-0-----------------------o||
||--0-0-----------------|-0-0------------------------||


 "Take your schemes.."
  D5  N.C.              D5  N.C.
  PM|                   PM|
  E E S S S S S S S S   E E S S S S  S  S  S  S
|---------------------|-------------------------|
|---------------------|-------------------------|
|---------------------|-------------------------|
|---------------------|-------------------------|
|-0-0-5-5-5-5-6-6-6-6-|-0-0---------10-10-10-10-|
|-0-0-----------------|-0-0-8-8-8-8-------------|
|
| PM|                   PM|
| E E S S S S S S S S   E E S S S S  S  S  S  S
|---------------------|-------------------------|
|---------------------|-------------------------|
|---------------------|-------------------------|
|---------------------|-------------------------|
|-0-0-5-5-5-5-6-6-6-6-|-0-0---------10-10-10-10-|
|-0-0-----------------|-0-0-8-8-8-8-------------|


  D5  N.C.              D5  N.C.
  PM|                   PM|
  E E S S S S S S S S   E E S S S S  S  S  S  S
|---------------------|-------------------------|
|---------------------|-------------------------|
|---------------------|-------------------------|
|---------------------|-------------------------|
|-0-0-5-5-5-5-6-6-6-6-|-0-0---------10-10-10-10-|
|-0-0-----------------|-0-0-8-8-8-8-------------|
|
| PM|                   PM|
| E E S S S S S S S S   E E S S S S  S  S  S  S
|---------------------|-------------------------|
|---------------------|-------------------------|
|---------------------|-------------------------|
|---------------------|-------------------------|
|-0-0-5-5-5-5-6-6-6-6-|-0-0---------10-10-10-10-|
|-0-0-----------------|-0-0-8-8-8-8-------------|


  D5  N.C.              D5  N.C.
  PM|                   PM|
  E E S S S S S S S S   E E S S S S  S  S  S  S
|---------------------|-------------------------|
|---------------------|-------------------------|
|---------------------|-------------------------|
|---------------------|-------------------------|
|-0-0-5-5-5-5-6-6-6-6-|-0-0---------10-10-10-10-|
|-0-0-----------------|-0-0-8-8-8-8-------------|
|
| PM|                   PM|
| E E S S S S S S S S   E E S S S S  S  S  S  S
|---------------------|-------------------------|
|---------------------|-------------------------|
|---------------------|-------------------------|
|-----3-3-3-3-5-5-5-5-|-----0-0-0-0--5--5--5--5-|
|-0-0-----------------|-0-0---------------------|
|-0-0-----------------|-0-0---------------------|


  D5  N.C.              D5  N.C.
  PM|                   PM|
  E E S S S S S S S S   E E S S S S  S  S  S  S
|---------------------|-------------------------||
|---------------------|-------------------------||
|---------------------|-------------------------||
|---------------------|-------------------------||
|-0-0-5-5-5-5-6-6-6-6-|-0-0---------10-10-10-10-||
|-0-0-----------------|-0-0-8-8-8-8-------------||
|
| PM|                   PM|
| E E S S S S S S S S   E E S S S S  S  S  S  S
|---------------------|-------------------------||
|---------------------|-------------------------||
|---------------------|-------------------------||
|-----3-3-3-3-5-5-5-5-|-----0-0-0-0--5--5--5--5-||
|-0-0-----------------|-0-0---------------------||
|-0-0-----------------|-0-0---------------------||


 Breakdown
  Into The Pit Q=127
  D5
 4/4
  PM------|                   PM----|
  S S S S E E H             E S S S S E H
|-------------------------|-------------------------|
|-------------------------|-------------------------|
|-------------------------|-------------------------|
|-------------------------|-------------------------|
|-0-0-0-0-0---------------|---0-0-0-0---------------|
|-0-0-0-0-0---------------|---0-0-0-0---------------|
|
|             PM------|                 PM------|
| H           S S S S E E   H           S S S S E E
|-------------------------|-------------------------|
|-------------------------|-------------------------|
|-------------------------|-------------------------|
|-------------------------|-------------------------|
|-------------0-0-0-0-0---|-------------0-0-0-0-0---|
|-------------0-0-0-0-0---|-------------0-0-0-0-0---|


                                                         2/4
    PM------|   PM------|       PM----|   PM------|
    S S S S E E S S S S E E   E S S S S E S S S S E E  4x H
||--------------------------|--------------------------||------||
||o-------------------------|-------------------------o||------||
||--------------------------|--------------------------||------||
||--------------------------|--------------------------||------||
||o-0-0-0-0-0---0-0-0-0-0---|---0-0-0-0---0-0-0-0-0---o||------||
||--0-0-0-0-0---0-0-0-0-0---|---0-0-0-0---0-0-0-0-0----||------||
|
|   PM------|   PM------|       PM----|   PM------|
|   S S S S E E S S S S E E   E S S S S E S S S S E E  4x H
||--------------------------|--------------------------||------||
||o-------------------------|-------------------------o||------||
||--------------------------|--------------------------||------||
||--------------------------|--------------------------||------||
||o-0-0-0-0-0---0-0-0-0-0---|---0-0-0-0---0-0-0-0-0---o||------||
||--0-0-0-0-0---0-0-0-0-0---|---0-0-0-0---0-0-0-0-0----||------||


   Outro
    Dreaming Q=162
    N.C.
   4/4
    Gtr III
      E   E   E    E   E   E   E    E     E   E   E    E   E   E   E    E
||-------------------------------------|-----------------------------------|
||o------------------------------------|-----------------------------------|
||-------------------------------------|-----------------------------------|
||--(12)---------------2---3--(3)------|-------------------2---3--(3)------|
||o------(0)--3----5--(5)-(7)--3----5--|-(5)-(0)--3----5--(5)-(7)--3----5--|
||----5---7--(7)-(10)-------------(10)-|--5---7--(7)-(10)-------------(10)-|
|
|   Gtr V
|     Q       Q        Q       Q          Q       Q        Q       Q
||-------------------------------------|-----------------------------------|
||o------------------------------------|-----------------------------------|
||---14------14-------14------14-------|-14------14-------14------14\------|
||----x-------x--------x-------x-------|--x-------x--------x-------x-------|
||o--12------12-------12------12-------|-12------12-------12------12\------|
||-------------------------------------|-----------------------------------|


   E   E    E   E    E   E    E    E      E   E    E   E    E   E    E    E
|-------------------------------------|---------------------------------------|
|-------------------------------------|---------------------------------------|
|-----------------------(3)--10--(10)-|------------------------(3)--10--(10)--|
|--------------(3)--10--12--(12)--12--|-(12)----------(3)--10--12--(12)--12---|
|-(5)-(3)--10--12--(12)---------------|------(3)--10--12--(12)----------------|
|-10--12--(12)------------------------|--10--12--(12)-------------------------|
|
|  Q        Q        Q        Q           Q        Q        Q        Q
|-------------------------------------|---------------------------------------|
|-------------------------------------|---------------------------------------|
|-10-------10-------10-------10-------|--10-------10-------10-------10\-------|
|--x--------x--------x--------x-------|---x--------x--------x--------x--------|
|--8--------8--------8--------8-------|---8--------8--------8--------8\-------|
|-------------------------------------|---------------------------------------|


  N.C.
    E   E    E   E    E   E    E    E      E   E    E   E    E   E    E    E
|--------------------------------------|--------------------------------------|
|------------------------(5)--10--(10)-|------------------------(5)--10--(10)-|
|---------------(5)---9--10--(10)--10--|-(10)----------(5)---9--10--(10)--10--|
|-(12)-(5)--10--12--(12)---------------|------(5)--10--12--(12)---------------|
|--10--12--(12)------------------------|--10--12--(12)------------------------|
|--------------------------------------|--------------------------------------|
|
|   Q        Q        Q        Q           Q        Q        Q        Q
|--------------------------------------|--------------------------------------|
|--------------------------------------|--------------------------------------|
|---9--------9--------9--------9-------|---9--------9--------9\-------5/------|
|---x--------x--------x--------x-------|---x--------x--------x--------x-------|
|---7--------7--------7--------7-------|---7--------7--------7\-------3/------|
|--------------------------------------|--------------------------------------|


    E   E    E   E    E   E    E    E      E   E    E   E    E   E    E    E    3x
|--------------------------------------|----------------------------------------||
|--------------------------------------|---------------------------------------o||
|-(10)-------------------(3)--10--(10)-|------------------------(3)--10--(10)---||
|---------------(3)--10--12--(12)--12--|-(12)----------(3)--10--12--(12)--12----||
|------(3)--10--12--(12)---------------|------(3)--10--12--(12)----------------o||
|--10--12--(12)------------------------|--10--12--(12)--------------------------||
|
|   Q        Q        Q        Q           Q        Q        Q        Q         3x
|--------------------------------------|----------------------------------------||
|--------------------------------------|---------------------------------------o||
|---7--------7--------7--------7-------|---7--------7--------7--------7/--------||
|---x--------x--------x--------x-------|---x--------x--------x--------x---------||
|---5--------5--------5--------5-------|---5--------5--------5--------5/-------o||
|--------------------------------------|----------------------------------------||


    N.C.
    Gtr III
      E   E    E    E    E   E    E    E      E   E    E    E    E   E    E    E
||----------------------------------------|---------------------------------------|
||o---------------------------------------|---------------------------------------|
||----------------------------------------|---------------------------------------|
||--(12)-----------------2---3---(3)------|----------------------2---3---(3)------|
||o------(0)---3----5---(5)-(7)---3----5--|--(5)-(0)---3----5---(5)-(7)---3----5--|
||----5---7---(7)-(10)---------------(10)-|---5---7---(7)-(10)---------------(10)-|
|
|   Gtr IV
|     E   E    E    E    E   E    E    E      E   E    E    E    E   E    E    E
||----------------------------------------|---------------------------------------|
||o-----------------------------------(5)-|-----------------------------------(5)-|
||--(10)--------------------(3)---9---10--|-(10)--------------------(3)---9---10--|
||-----------------(3)--10--12--(12)------|----------------(3)--10--12--(12)------|
||o------(3)--10---12--(12)---------------|------(3)--10---12--(12)---------------|
||---10--12--(12)-------------------------|--10--12--(12)-------------------------|
|
|   Gtr V
|     Q        Q         Q        Q           Q        Q         Q        Q
||----------------------------------------|---------------------------------------|
||o---------------------------------------|---------------------------------------|
||---14-------14--------14-------14-------|--14-------14--------14-------14\------|
||----x--------x---------x--------x-------|---x--------x---------x--------x-------|
||o--12-------12--------12-------12-------|--12-------12--------12-------12\------|
||----------------------------------------|---------------------------------------|


    E   E    E   E    E   E    E    E      E   E    E   E    E   E    E    E
|--------------------------------------|--------------------------------------|
|--------------------------------------|--------------------------------------|
|------------------------(3)--10--(10)-|------------------------(3)--10--(10)-|
|---------------(3)--10--12--(12)--12--|-(12)----------(3)--10--12--(12)--12--|
|--(5)-(3)--10--12--(12)---------------|------(3)--10--12--(12)---------------|
|--10--12--(12)------------------------|--10--12--(12)------------------------|
|
|   E   E    E   E    E   E    E    E      E   E    E   E    E   E    E    E
|--------------------------------------|--------------------------------------|
|----------------------------------(5)-|----------------------------------(5)-|
|-(10)-------------------(3)---9---10--|-(10)-------------------(3)---9---10--|
|---------------(3)--10--12--(12)------|---------------(3)--10--12--(12)------|
|------(3)--10--12--(12)---------------|------(3)--10--12--(12)---------------|
|--10--12--(12)------------------------|--10--12--(12)------------------------|
|
|   Q        Q        Q        Q           Q        Q        Q        Q
|--------------------------------------|--------------------------------------|
|--------------------------------------|--------------------------------------|
|--10-------10-------10-------10-------|--10-------10-------10-------10\------|
|---x--------x--------x--------x-------|---x--------x--------x--------x-------|
|---8--------8--------8--------8-------|---8--------8--------8--------8\------|
|--------------------------------------|--------------------------------------|


  N.C.
    E   E    E   E    E   E    E    E      E   E    E   E    E   E    E    E
|--------------------------------------|--------------------------------------|
|------------------------(5)--10--(10)-|------------------------(5)--10--(10)-|
|---------------(5)---9--10--(10)--10--|-(10)----------(5)---9--10--(10)--10--|
|-(12)-(5)--10--12--(12)---------------|------(5)--10--12--(12)---------------|
|--10--12--(12)------------------------|--10--12--(12)------------------------|
|--------------------------------------|--------------------------------------|
|
|   E   E    E   E    E   E    E    E      E   E    E   E    E   E    E    E
|--------------------------------------|--------------------------------------|
|----------------------------------(5)-|----------------------------------(5)-|
|-(10)-------------------(3)---9---10--|-(10)-------------------(3)---9---10--|
|---------------(3)--10--12--(12)------|---------------(3)--10--12--(12)------|
|------(3)--10--12--(12)---------------|------(3)--10--12--(12)---------------|
|--10--12--(12)------------------------|--10--12--(12)------------------------|
|
|   Q        Q        Q        Q           Q        Q        Q        Q
|--------------------------------------|--------------------------------------|
|--------------------------------------|--------------------------------------|
|---9--------9--------9--------9-------|---9--------9--------9\-------5/------|
|---x--------x--------x--------x-------|---x--------x--------x--------x-------|
|---7--------7--------7--------7-------|---7--------7--------7\-------3/------|
|--------------------------------------|--------------------------------------|


    E   E    E   E    E   E    E    E      E   E    E   E    E   E    E    E    4x
|--------------------------------------|----------------------------------------||
|--------------------------------------|---------------------------------------o||
|-(10)-------------------(3)--10--(10)-|------------------------(3)--10--(10)---||
|---------------(3)--10--12--(12)--12--|-(12)----------(3)--10--12--(12)--12----||
|------(3)--10--12--(12)---------------|------(3)--10--12--(12)----------------o||
|--10--12--(12)------------------------|--10--12--(12)--------------------------||
|
|   E   E    E   E    E   E    E    E      E   E    E   E    E   E    E    E    4x
|--------------------------------------|----------------------------------------||
|----------------------------------(5)-|----------------------------------(5)--o||
|-(10)-------------------(3)---9---10--|-(10)-------------------(3)---9---10----||
|---------------(3)--10--12--(12)------|---------------(3)--10--12--(12)--------||
|------(3)--10--12--(12)---------------|------(3)--10--12--(12)----------------o||
|--10--12--(12)------------------------|--10--12--(12)--------------------------||
|
|   Q        Q        Q        Q           Q        Q        Q        Q         4x
|--------------------------------------|----------------------------------------||
|--------------------------------------|---------------------------------------o||
|---7--------7--------7--------7-------|---7--------7--------7--------7/--------||
|---x--------x--------x--------x-------|---x--------x--------x--------x---------||
|---5--------5--------5--------5-------|---5--------5--------5--------5/-------o||
|--------------------------------------|----------------------------------------||


  N.C.
  Gtr V
  >
  Q  Q  Q  Q    W          W          W
|-------------|----------|----------|------*|
|-------------|----------|----------|------*|
|-7--7--7--7--|----------|----------|------*|
|-x--x--x--x--|----------|----------|------*|
|-5--5--5--5--|----------|----------|------*|
|-------------|----------|----------|------*|


Duration Legend
---------------
W - whole; H - half; Q - quarter; E - 8th; S - 16th; T - 32nd; X - 64th; a - acciaccatura
+ - note tied to previous; . - note dotted; .. - note double dotted
Uncapitalized letters represent notes that are staccato (1/2 duration)
Irregular groupings are notated above the duration line
Duration letters will always appear directly above the note/fret number it represents the
duration for.  Duration letters with no fret number below them represent rests.  Multi-
bar rests are notated in the form Wxn, where n is the number of bars to rest for.  Low
melody durations appear below the staff

Tablature Legend
----------------
 h   - hammer-on
 p   - pull-off
 b   - bend
 pb  - pre-bend
 r   - bend release (if no number after the r, then release immediately)
 /\  - slide into or out of (from/to "nowhere")
 s   - legato slide
 S   - shift slide
  - natural harmonic
[n]  - artificial harmonic
n(n) - tapped harmonic
 ~   - vibrato
 tr  - trill
 T   - tap
 TP  - trem. picking
 PM  - palm muting
\n/  - tremolo bar dip; n = amount to dip
 \n  - tremolo bar down
 n/  - tremolo bar up
/n\  - tremolo bar inverted dip
 =   - hold bend; also acts as connecting device for hammers/pulls
 <>  - volume swell (louder/softer)
 x   - on rhythm slash represents muted slash
 o   - on rhythm slash represents single note slash

Misc Legend
-----------
 |  - bar
||  - double bar
||o - repeat start
o|| - repeat end
*|  - double bar (ending)
 :  - bar (freetime)
 $  - Segno
 &  - Coda
Tempo markers -  = BPM(8/16=s8/s16), where s8 = swing 8ths, s16 = swing 16ths


***************************************************************************************
***************************************************************************************





Comments


Popular Dead To Fall tabs & chords
Bastard Set Of Dreams Bass Tabs
All My Heroes Have Failed Me Tabs
Balance Theory Tabs
Blood Of The Moon Tabs
Cost Of A Good Impression Tabs
Master Exploder Tabs
Memory Tabs
Smoke And Mirrors Intro Tabs
Torn Self Ready Set Circle Pit Tabs
You've Already Died Tabs


Song lyrics



↑ Back to top | Tablatures and chords are parodies/interpretations of the original songs. You may use it for private study, scholarship, research or language learning purposes only
© 2014 AZChords.com Contact us | Privacy policy | DMCA | Add/correct tabs | Request tabs | Top 50 tabs