>
 >
Bastard Set Of Dreams

Bastard Set Of Dreams Bass Tabs

Dead To Fall - Bastard Set Of Dreams chords, tabs, tablatures, lyrics

Guitar lessons | Add/correct | Request | Top 50 tabs Artists:  A B C D E F G H I J K L M N O P Q R S T U V W X Y Z 0-9

Bastard Set Of Dreams Bass Tabs – Dead To Fall

CD, Sheet music, Poster

Do you like Bastard Set Of Dreams? Share with your friends now
Bass TabsTabsTabs v2
Gtr I (B Gb B E) - 'Untitled'


 Intro
   Q=130
 4/4
  Gtr I
  W          W          W          +W
|----------|----------|----------|--------|
|----------|----------|----------|--------|
|----------|----------|----------|--------|
|----------|----------|-0--------|-(0)----|


    E H..         W          W          +W
||--------------|----------|----------|---------||
||o-------------|----------|----------|--------o||
||o-------------|----------|----------|--------o||
||--0-----------|----------|-0--------|-(0)-----||


  E H..         W          W           W
|-------------|----------|----------|--------||
|-------------|----------|----------|--------||
|-------------|----------|----------|--------||
|-0-----------|----------|-0--------|-12\----||


   
    S S S S S S S S S S S S S S S S   S S S S S S S S S S S S S S S S
||----------------------------------|---------------------------------|
||o---------------------------------|---------------------------------|
||o-5-5-5-5-5-5-5-5-5-5-5-5-5-5-5-5-|-3-3-3-3-3-3-3-3-6-6-6-6-6-6-6-6-|
||----------------------------------|---------------------------------|


  1.,2.,3.
  S S S S E E S S S S E E   E S S S S E S S S S E E     4x
|-------------------------|-----------------------------||
|-------------------------|----------------------------o||
|-------------------------|----------------------------o||
|-0-0-0-0-0---0-0-0-0-0---|---0-0-0-0---0-0-0-0-0-------||


    4.
    S S S S E +E  S S S S E +E
||------------------------------|
||o-----------------------------|
||o-----------------------------|
||--0-0-0-0-0-(0)-0-0-0-0-0-(0)-|


                                    Q=187
  +E  S S S S +E  S S S S E +E   4x E H..         H    Q  Q
|--------------------------------||-------------|--------------||
|-------------------------------o||-------------|--------------||
|-------------------------------o||-------------|--------------||
|-(0)-0-0-0-0-(0)-0-0-0-0-0-(0)--||-0-----------|------1--5----||


 
  S S S S S S S S E E S S S S   E E E E Q  Q
|-----------------------------|---------------|
|-----------------------------|---------------|
|-----------------6-5---------|-5-3-1-0-------|
|-0-0-0-0-0-0-0-0-----0-0-0-0-|---------1--5--|


  S S S S S S S S E E S S S S   E E E E Q  Q
|-----------------------------|-----------------|
|-----------------------------|-----------------|
|-----------------6-5---------|-5-3-1-0---------|
|-0-0-0-0-0-0-0-0-----0-0-0-0-|---------1--1----|


  S S S S S S S S E E S S S S   E E E E Q  Q
|-----------------------------|---------------|
|-----------------------------|---------------|
|-----------------6-5---------|-5-3-1-0-------|
|-0-0-0-0-0-0-0-0-----0-0-0-0-|---------1--5--|


  S S S S S S S S E E S S S S   Q  Q  Q  Q
|-----------------------------|---------------|
|-----------------------------|---------------|
|-----------------6-5---------|-6--5----------|
|-0-0-0-0-0-0-0-0-----0-0-0-0-|-------8--7----|


 2/4
  H      +H       H      +H
|------|--------|------|--------||
|------|--------|------|--------||
|------|--------|------|--------||
|-1----|-(1)----|-5----|-(5)----||


   Bridge
   3/4
    S S S S S S S S S S S S   S S S S S S S S  S  S  S  S
||--------------------------|-----------------------------|
||o-------------------------|-----------------------------|
||o---------5-5-5-5-6-6-6-6-|-----------------10-10-10-10-|
||--0-0-0-0-----------------|-0-0-0-0-8-8-8-8-------------|


  S S S S S S S S S S S S   S S S S S S S S  S  S  S  S
|-------------------------|------------------------------||
|-------------------------|-----------------------------o||
|---------5-5-5-5-6-6-6-6-|-----------------10-10-10-10-o||
|-0-0-0-0-----------------|-0-0-0-0-8-8-8-8--------------||


 2/4
  S S S S S S S S   S S S S E E   H
|-----------------|-------------|------||
|-----------------|-------------|------||
|-----------------|-------------|------||
|-0-0-0-0-0-0-0-0-|-0-0-0-0-0---|------||


 
 4/4
  S S E E E E E S S E   E E E E S S S S S S S S   S S S S E E E E Q
|---------------------|-------------------------|---------------------|
|---------------------|-------------------------|-----------------5---|
|---------------------|-------------------------|-------------1-1-----|
|-0-0-0-0-0-0-0-0-0-0-|-0-0-0-0-0-0-0-0-0-0-0-0-|-0-0-0-0-0-0---------|


  S S E E E E E S S E   E E E E S S S S S S S S   S S S S H.
|---------------------|-------------------------|---------------|
|---------------------|-------------------------|---------------|
|---------------------|-------------------------|---------------|
|-0-0-0-0-0-0-0-0-0-0-|-0-0-0-0-0-0-0-0-0-0-0-0-|-0-0-0-0-7\----|


  S S E E E E E S S E   E E E E S S S S S S S S   S S S S E E E E Q
|---------------------|-------------------------|--------------------|
|---------------------|-------------------------|-----------------5--|
|---------------------|-------------------------|-------------1-1----|
|-0-0-0-0-0-0-0-0-0-0-|-0-0-0-0-0-0-0-0-0-0-0-0-|-0-0-0-0-0-0--------|


                      Q=130
 3/4                  4/4
  H.        H.         E E H.        E E E E E. E. E
|---------|---------||-------------|------------------|
|---------|---------||-------------|------------------|
|---------|---------||-------------|------------------|
|---------|---------||-0-0---------|---0-0-0-0--0--0--|


  S S E H.        W          E E H.        E E E E E. E. E
|---------------|----------|-------------|------------------|
|---------------|----------|-------------|------------------|
|---------------|----------|-------------|------------------|
|-0-0-0---------|----------|-0-0---------|---0-0-0-0--0--0--|


  S S E H.        W          E E +H.        +E  E E E E. E. E
|---------------|----------|--------------|--------------------|
|---------------|----------|--------------|--------------------|
|---------------|----------|--------------|--------------------|
|-0-0-0---------|----------|-0-0-(0)------|-(0)-0-0-0-0--0--0--|


  S S E +H.        +W           E E +H.        +E  E E E E. E. E
|----------------|------------|--------------|--------------------|
|----------------|------------|--------------|--------------------|
|----------------|------------|--------------|--------------------|
|-0-0-0-(0)------|-(0)--------|-0-0-(0)------|-(0)-0-0-0-0--0--0--|


                                  Q=187
                                 3/4
  S S E +H.        +W             E E H      E E H     4x
|----------------|------------||-----------|-----------||
|----------------|------------||o----------|----------o||
|----------------|------------||o----------|----------o||
|-0-0-0-(0)------|-(0)--------||--0-0------|-0-0-------||


   
   3/4
    E E S S S S S S S S   E E S S S S  S  S  S  S
||----------------------|-------------------------|
||o---------------------|-------------------------|
||o-----5-5-5-5-6-6-6-6-|-------------10-10-10-10-|
||--0-0-----------------|-0-0-8-8-8-8-------------|


  E E S S S S S S S S   E E S S S S  S  S  S  S
|---------------------|---------------------------||
|---------------------|--------------------------o||
|-----5-5-5-5-6-6-6-6-|-------------10-10-10-10--o||
|-0-0-----------------|-0-0-8-8-8-8---------------||


 Breakdown Q=127
 4/4
  W          W            S S S S E +E  S S S S E +E
|----------|----------||------------------------------|
|----------|----------||o-----------------------------|
|----------|----------||o-----------------------------|
|----------|----------||--0-0-0-0-0-(0)-0-0-0-0-0-(0)-|


                                   2/4
  +E  S S S S +E  S S S S E +E   4x H
|--------------------------------||------||
|-------------------------------o||------||
|-------------------------------o||------||
|-(0)-0-0-0-0-(0)-0-0-0-0-0-(0)--||------||




Duration Legend
---------------
W - whole; H - half; Q - quarter; E - 8th; S - 16th; T - 32nd; X - 64th; a - acciaccatura
+ - note tied to previous; . - note dotted; .. - note double dotted
Uncapitalized letters represent notes that are staccato (1/2 duration)
Irregular groupings are notated above the duration line
Duration letters will always appear directly above the note/fret number it represents the
duration for.  Duration letters with no fret number below them represent rests.  Multi-
bar rests are notated in the form Wxn, where n is the number of bars to rest for.  Low
melody durations appear below the staff

Tablature Legend
----------------
 h   - hammer-on
 p   - pull-off
 b   - bend
 pb  - pre-bend
 r   - bend release (if no number after the r, then release immediately)
 /\  - slide into or out of (from/to "nowhere")
 s   - legato slide
 S   - shift slide
 - natural harmonic
[n]  - artificial harmonic
n(n) - tapped harmonic
 ~   - vibrato
 tr  - trill
 T   - tap
 TP  - trem. picking
 PM  - palm muting
\n/  - tremolo bar dip; n = amount to dip
 \n  - tremolo bar down
 n/  - tremolo bar up
/n\  - tremolo bar inverted dip
 =   - hold bend; also acts as connecting device for hammers/pulls
 <> - volume swell (louder/softer)
 x   - on rhythm slash represents muted slash
 o   - on rhythm slash represents single note slash

Misc Legend
-----------
 |  - bar
||  - double bar
||o - repeat start
o|| - repeat end
*|  - double bar (ending)
 :  - bar (freetime)
 $  - Segno
 &  - Coda
Tempo markers -  = BPM(8/16=s8/s16), where s8 = swing 8ths, s16 = swing 16ths





Comments


Popular Dead To Fall tabs & chords
All My Heroes Have Failed Me Tabs
Balance Theory Tabs
Bastard Set Of Dreams Tabs
Blood Of The Moon 1 Tabs
Cost Of A Good Impression Tabs
Master Exploder Tabs
Memory Tabs
Memory 1 Tabs
Tu Se Morta Tabs
You've Already Died Tabs


Song lyrics



↑ Back to top | Tablatures and chords are parodies/interpretations of the original songs. You may use it for private study, scholarship, research or language learning purposes only
© 2014 AZChords.com Contact us | Privacy policy | DMCA | Add/correct tabs | Request tabs | Top 50 tabs