» » »

Do The Bearcat Tabs (ver.1)

Artists:  A B C D E F G H I J K L M N O P Q R S T U V W X Y Z # 

Do The Bearcat Tabs (ver.1)

David Wilcox
Rating:
3/5 (1 vote)

Hard to play? Try these video lessons and learn fast.
                (Intro)
----------------------------------------------------------------------------
                             Do the Bearcat - David Wilcox
----------------------------------------------------------------------------

Tuning: EADGBe

e|-------------------------------|
B|-------------------------------|
G|-------------------------------|  repeat 3x
D|------------------------7------|
A|-0--0--4--5--6--7--7h9---------|
E|-------------------------------|

e|--------------------------------|
B|--------------------------------|
G|--------------------------------|
D|------------------------7-------|
A|-0--0--4--5--6--7--7h9----------|
E|---------------------------5----|

on the last note you have to play around with the wammy bar


| /  slide up
| \  slide down
| h  hammer-on
| p  pull-off
| ~  vibrato
| +  harmonic
| x  Mute note
===============================================================================
            
Hard to play? Try these video lessons and learn fast. | Correct




comments powered by Disqus
↑ Back to top | Tablatures and chords are parodies/interpretations of the original songs. You may use it for private study, scholarship, research or language learning purposes only