>
 >
Laying Pipe

Laying Pipe Guitar Tabs

David Wilcox - Laying Pipe chords, tabs, tablatures, lyrics

Guitar lessons | Add/correct | Request | Top 50 tabs Artists:  A B C D E F G H I J K L M N O P Q R S T U V W X Y Z 0-9

Laying Pipe Guitar Tabs – David Wilcox

CD, Sheet music, Poster

Do you like Laying Pipe? Share with your friends now
Tabs
Laying Pipe by
David Wilcox

A great song by a Canadian artist.  There is only 18 tabs for David Wilcox and
none for this song so I decided to make one for it.

About the Guitar Solo:
-I'm pretty sure Guitar 2 plays it but you can play it if you're guitar 1.
-I don't know what effects he uses.
-It is not correct but good to fool around with so post your corrections!

Guide:
h = Hammer-on
p = Pull-off
b = Bend
r = Release Bend
v = Vibrato
/ = Slide Up
\ = Slide Down

Gtr I  (Eb Ab Db Gb Bb Eb) - David Wilcox
Gtr II (Eb Ab Db Gb Bb Eb) - David Wilcox

  Intro
Gtr 1
eb|-------------------------------|-------------------------------|
Bb|-------------------------------|-------------------------------|
Gb|-----------------2-----2---2---|-----------------2-----2---2---|
Db|-2-------2-------0-----0---0---|-2-------2-------0-----0---0---|
Ab|-0---3---0---3-------3-------3-|-0---3---0---3-------3-------3-|
Eb|-------------------------------|-------------------------------|

Gtr 2
                                      This note comes in on the 16/16 beat.
eb|-----------------------------------|-----------------------------------|
Bb|-------------------------------10v-|-------------------------------10v-|
Gb|-----------------------------------|-----------------------------------|
Db|-----------------------------------|-----------------------------------|
Ab|-----------------------------------|-----------------------------------|
Eb|-----------------------------------|-----------------------------------|

  {{Drums Enter}}

Gtr 1
eb|-------------------------------|-------------------------------|
Bb|-------------------------------|-------------------------------|
Gb|-----------------2-----2---2---|-----------------2-----2---2---|
Db|-2-------2-------0-----0---0---|-2-------2-------0-----0---0---|
Ab|-0---3---0---3-------3-------3-|-0---3---0---3-------3-------3-|
Eb|-------------------------------|-------------------------------|

Gtr 2
eb|-----------------------------------|-----------------------------------|
Bb|-------------------------------10v-|-------------------------------10v-|
Gb|-----------------------------------|-----------------------------------|
Db|-----------------------------------|-----------------------------------|
Ab|-----------------------------------|-----------------------------------|
Eb|-----------------------------------|-----------------------------------|

  Verse
Gtr 1
eb|-------------------------------|-------------------------------|
Bb|-------------------------------|-------------------------------|
Gb|-----------------2-----2---2---|-----------------2-----2---2---|
Db|-2-------2-------0-----0---0---|-2-------2-------0-----0---0---|
Ab|-0---3---0---3-------3-------3-|-0---3---0---3-------3-------3-|
Eb|-------------------------------|-------------------------------|

eb|-------------------------------|-------------------------------|
Bb|-------------------------------|-------------------------------|
Gb|-----------------2-----2---2---|-----------------2-----2---2---|
Db|-2-------2-------0-----0---0---|-2-------2-------0-----0---0---|
Ab|-0---3---0---3-------3-------3-|-0---3---0---3-------3-------3-|
Eb|-------------------------------|-------------------------------|

eb|-------------------------------|-------------------------------|
Bb|-------------------------------|-------------------------------|
Gb|-----------------2-----2---2---|-----------------2-----2---2---|
Db|-2-------2-------0-----0---0---|-2-------2-------0-----0---0---|
Ab|-0---3---0---3-------3-------3-|-0---3---0---3-------3-------3-|
Eb|-------------------------------|-------------------------------|

eb|-------------------------------|-------------------------------|
Bb|-------------------------------|-------------------------------|
Gb|-----------------2-----2---2---|-----------------2-----2---2---|
Db|-2-------2-------0-----0---0---|-2-------2-------0-----0---0---|
Ab|-0---3---0---3-------3-------3-|-0---3---0---3-------3-------3-|
Eb|-------------------------------|-------------------------------|

eb|---------------------------------|---------------------------------|
Bb|---------------------------------|---------------------------------|
Gb|---------5-----7-7-7-7-7-7-7-7-7-|---------5-----7-7-7-7-7-7-7-7-7-|
Db|-3-------5-----7-7-7-7-7-7-7-7-7-|-3-------5-----7-7-7-7-7-7-7-7-7-|
Ab|-3-------3-----5-5-5-5-5-5-5-5-5-|-3-------3-----5-5-5-5-5-5-5-5-5-|
Eb|-1-------------------------------|-1-------------------------------|

eb|---------------------------------|---------------------------------|
Bb|---------------------------------|---------------------------------|
Gb|---------5-----7-7-7-7-7-7-7-7-7-|-7-9-9-9-9-9-9-9-9-9-9-9-9-9-9-9-|
Db|-3-------5-----7-7-7-7-7-7-7-7-7-|-7-9-9-9-9-9-9-9-9-9-9-9-9-9-9-9-|
Ab|-3-------3-----5-5-5-5-5-5-5-5-5-|-5-7-7-7-7-7-7-7-7-7-7-7-7-7-7-7-|
Eb|-1-------------------------------|---------------------------------|

  Chorus
Gtr 1
Chords used are:
    G   D   A
eb|-3-|-2-|---|
Bb|-0-|-3-|-2-|
Gb|-0-|-2-|-2-|
Db|-0-|-0-|-2-|
Ab|-2-|---|-0-|
Eb|-3-|---|---|
                G   D     A
Im laying pipe, all night long.

Gtr 2
           This note comes in at a different time.  1/16 on the second bar.
eb|-----------------------------------|-----------------------------------|
Bb|-----------------------------------|-10v-------------------------------|
Gb|-----------------------------------|-----------------------------------|
Db|-----------------------------------|-----------------------------------|
Ab|-----------------------------------|-----------------------------------|
Eb|-----------------------------------|-----------------------------------|

Gtr 1
                   G       D    A
Im laying pipe, Im workin' so hard.

Gtr 2
eb|-----------------------------------|-----------------------------------|
Bb|-----------------------------------|-10v-------------------------------|
Gb|-----------------------------------|-----------------------------------|
Db|-----------------------------------|-----------------------------------|
Ab|-----------------------------------|-----------------------------------|
Eb|-----------------------------------|-----------------------------------|

Gtr 1
                G   D     A
Im laying pipe, all night long.

Gtr 2
eb|-----------------------------------|-----------------------------------|
Bb|-----------------------------------|-10v-------------------------------|
Gb|-----------------------------------|-----------------------------------|
Db|-----------------------------------|-----------------------------------|
Ab|-----------------------------------|-----------------------------------|
Eb|-----------------------------------|-----------------------------------|

Gtr 1
                G   D
Im laying pipe,        to satisfy that woman.

Gtr 2
eb|-----------------------------------|-----------------------------------|
Bb|-----------------------------------|-10v-------------------------------|
Gb|-----------------------------------|-----------------------------------|
Db|-----------------------------------|-----------------------------------|
Ab|-----------------------------------|-----------------------------------|
Eb|-----------------------------------|-----------------------------------|

  Verse
Gtr 1
eb|-------------------------------|-------------------------------|
Bb|-------------------------------|-------------------------------|
Gb|-----------------2-----2---2---|-----------------2-----2---2---|
Db|-2-------2-------0-----0---0---|-2-------2-------0-----0---0---|
Ab|-0---3---0---3-------3-------3-|-0---3---0---3-------3-------3-|
Eb|-------------------------------|-------------------------------|

eb|-------------------------------|-------------------------------|
Bb|-------------------------------|-------------------------------|
Gb|-----------------2-----2---2---|-----------------2-----2---2---|
Db|-2-------2-------0-----0---0---|-2-------2-------0-----0---0---|
Ab|-0---3---0---3-------3-------3-|-0---3---0---3-------3-------3-|
Eb|-------------------------------|-------------------------------|

eb|-------------------------------|-------------------------------|
Bb|-------------------------------|-------------------------------|
Gb|-----------------2-----2---2---|-----------------2-----2---2---|
Db|-2-------2-------0-----0---0---|-2-------2-------0-----0---0---|
Ab|-0---3---0---3-------3-------3-|-0---3---0---3-------3-------3-|
Eb|-------------------------------|-------------------------------|

eb|-------------------------------|-------------------------------|
Bb|-------------------------------|-------------------------------|
Gb|-----------------2-----2---2---|-----------------2-----2---2---|
Db|-2-------2-------0-----0---0---|-2-------2-------0-----0---0---|
Ab|-0---3---0---3-------3-------3-|-0---3---0---3-------3-------3-|
Eb|-------------------------------|-------------------------------|

eb|---------------------------------|---------------------------------|
Bb|---------------------------------|---------------------------------|
Gb|---------5-----7-7-7-7-7-7-7-7-7-|---------5-----7-7-7-7-7-7-7-7-7-|
Db|-3-------5-----7-7-7-7-7-7-7-7-7-|-3-------5-----7-7-7-7-7-7-7-7-7-|
Ab|-3-------3-----5-5-5-5-5-5-5-5-5-|-3-------3-----5-5-5-5-5-5-5-5-5-|
Eb|-1-------------------------------|-1-------------------------------|

eb|---------------------------------|---------------------------------|
Bb|---------------------------------|---------------------------------|
Gb|---------5-----7-7-7-7-7-7-7-7-7-|-7-9-9-9-9-9-9-9-9-9-9-9-9-9-9-9-|
Db|-3-------5-----7-7-7-7-7-7-7-7-7-|-7-9-9-9-9-9-9-9-9-9-9-9-9-9-9-9-|
Ab|-3-------3-----5-5-5-5-5-5-5-5-5-|-5-7-7-7-7-7-7-7-7-7-7-7-7-7-7-7-|
Eb|-1-------------------------------|---------------------------------|

  Chorus
Gtr 1
                G   D     A
Im laying pipe, all night long.

Gtr 2
eb|-----------------------------------|-----------------------------------|
Bb|-----------------------------------|-10v-------------------------------|
Gb|-----------------------------------|-----------------------------------|
Db|-----------------------------------|-----------------------------------|
Ab|-----------------------------------|-----------------------------------|
Eb|-----------------------------------|-----------------------------------|

Gtr 1
                   G       D    A
Im laying pipe, Im workin' so hard.

Gtr 2
eb|-----------------------------------|-----------------------------------|
Bb|-----------------------------------|-10v-------------------------------|
Gb|-----------------------------------|-----------------------------------|
Db|-----------------------------------|-----------------------------------|
Ab|-----------------------------------|-----------------------------------|
Eb|-----------------------------------|-----------------------------------|

Gtr 1
                G   D     A
Im laying pipe, all night long.

Gtr 2
eb|-----------------------------------|-----------------------------------|
Bb|-----------------------------------|-10v-------------------------------|
Gb|-----------------------------------|-----------------------------------|
Db|-----------------------------------|-----------------------------------|
Ab|-----------------------------------|-----------------------------------|
Eb|-----------------------------------|-----------------------------------|

Gtr 1
                G   D
Im laying pipe,        to satisfy that woman.

Gtr 2
eb|-----------------------------------|-----------------------------------|
Bb|-----------------------------------|-10v-------------------------------|
Gb|-----------------------------------|-----------------------------------|
Db|-----------------------------------|-----------------------------------|
Ab|-----------------------------------|-----------------------------------|
Eb|-----------------------------------|-----------------------------------|

  Guitar Solo
Gtr 1
This riff is played throughout this part of the solo but it is very quiet. Listen very 
to the song and you can hear it.
eb|-------------------------------|-------------------------------|
Bb|-------------------------------|-------------------------------|
Gb|-----------------2-----2---2---|-----------------2-----2---2---|
Db|-2-------2-------0-----0---0---|-2-------2-------0-----0---0---|
Ab|-0---3---0---3-------3-------3-|-0---3---0---3-------3-------3-|
Eb|-------------------------------|-------------------------------|

Gtr 2
eb|-------------------------------|-------------------------------------|
Bb|-10-10---10---/10-10v----------|-10---10---10------/10-10v--13b14r13-|
Gb|-9--9----9---------------------|-9----9----9h12----------------------|
Db|-------------------------------|-------------------------------------|
Ab|-------------------------------|-------------------------------------|
Eb|-------------------------------|-------------------------------------|

Gtr 1
eb|-------------------------------|-------------------------------|
Bb|-------------------------------|-------------------------------|
Gb|-----------------2-----2---2---|-----------------2-----2---2---|
Db|-2-------2-------0-----0---0---|-2-------2-------0-----0---0---|
Ab|-0---3---0---3-------3-------3-|-0---3---0---3-------3-------3-|
Eb|-------------------------------|-------------------------------|

Gtr 2
eb|------------------------------------|-----------------------------------|
Bb|-10----10----10h13---/10-10v--10/13-|-10---10---10---10-----10---13b14\-|
Gb|-9-----9-----9----------------------|-9----9----9----9----9----9-12b13\-|
Db|------------------------------------|-----------------------------------|
Ab|------------------------------------|-----------------------------------|
Eb|------------------------------------|-----------------------------------|

Gtr 1
eb|---------------------------------|---------------------------------|
Bb|---------------------------------|---------------------------------|
Gb|---------5-----7-7-7-7-7-7-7-7-7-|---------5-----7-7-7-7-7-7-7-7-7-|
Db|-3-------5-----7-7-7-7-7-7-7-7-7-|-3-------5-----7-7-7-7-7-7-7-7-7-|
Ab|-3-------3-----5-5-5-5-5-5-5-5-5-|-3-------3-----5-5-5-5-5-5-5-5-5-|
Eb|-1-------------------------------|-1-------------------------------|

Gtr 2
eb|-----------------------------------12---------|
Bb|----------13---------12---------13----13------|
Gb|-------14---------12---------14----------14---|
Db|----12---------12---------12---------------12-|
Ab|----------------------------------------------|
Eb|----------------------------------------------|

eb|-----------------------------------12---------|
Bb|----------13---------12---------13----13------|
Gb|-------14---------12---------14----------14---|
Db|----12---------12---------12---------------12-|
Ab|----------------------------------------------|
Eb|----------------------------------------------|

Gtr 1
eb|---------------------------------|---------------------------------|
Bb|---------------------------------|---------------------------------|
Gb|---------5-----7-7-7-7-7-7-7-7-7-|-7-9-9-9-9-9-9-9-9-9-9-9-9-9-9-9-|
Db|-3-------5-----7-7-7-7-7-7-7-7-7-|-7-9-9-9-9-9-9-9-9-9-9-9-9-9-9-9-|
Ab|-3-------3-----5-5-5-5-5-5-5-5-5-|-5-7-7-7-7-7-7-7-7-7-7-7-7-7-7-7-|
Eb|-1-------------------------------|---------------------------------|

Gtr 2
eb|-----------------------------------12---------|
Bb|----------13---------12---------13----13------|
Gb|-------14---------14-12------14----------14---|
Db|----12---------12---------12---------------12-|
Ab|----------------------------------------------|
Eb|----------------------------------------------|

eb|-----------12------------------|
Bb|-------15--12------------------|
Gb|----14-----9-------------------|
Db|-12----------------------------|
Ab|-------------------------------|
Eb|-------------------------------|

  End Solo.

  Verse
Gtr 1
eb|-------------------------------|-------------------------------|
Bb|-------------------------------|-------------------------------|
Gb|-----------------2-----2---2---|-----------------2-----2---2---|
Db|-2-------2-------0-----0---0---|-2-------2-------0-----0---0---|
Ab|-0---3---0---3-------3-------3-|-0---3---0---3-------3-------3-|
Eb|-------------------------------|-------------------------------|

eb|-------------------------------|-------------------------------|
Bb|-------------------------------|-------------------------------|
Gb|-----------------2-----2---2---|-----------------2-----2---2---|
Db|-2-------2-------0-----0---0---|-2-------2-------0-----0---0---|
Ab|-0---3---0---3-------3-------3-|-0---3---0---3-------3-------3-|
Eb|-------------------------------|-------------------------------|

Gtr 2
  Note: All these guitar fills are played the same time as the C# (xx02xx) power chord.
This part requires a slide. You can use your finger but it won't sound the same.
eb|---------------------------------|--------------------------------|
Bb|-----------------1/----------10v-|----------------10\-----------1-|
Gb|---------------------------------|--------------------------------|
Db|---------------------------------|--------------------------------|
Ab|---------------------------------|--------------------------------|
Eb|---------------------------------|--------------------------------|

Gtr 1
eb|-------------------------------|-------------------------------|
Bb|-------------------------------|-------------------------------|
Gb|-----------------2-----2---2---|-----------------2-----2---2---|
Db|-2-------2-------0-----0---0---|-2-------2-------0-----0---0---|
Ab|-0---3---0---3-------3-------3-|-0---3---0---3-------3-------3-|
Eb|-------------------------------|-------------------------------|

Gtr 2
For this part you keep bending and releasing the notes.
eb|-----------------------------------------------------------|
Bb|------------------------10b-11r-10b-11r-10b-11r-10b-11r-10-|
Gb|-------------------------9b-10r--9b-10r--9b-10r--9b-10r--9-|
Db|-----------------------------------------------------------|
Ab|-----------------------------------------------------------|
Eb|-----------------------------------------------------------|

eb|-----------------------------------------------------------|
Bb|------------------------10b-11r-10b-11r-10b-11r-10b-11r-10-|
Gb|-------------------------9b-10r--9b-10r--9b-10r--9b-10r--9-|
Db|-----------------------------------------------------------|
Ab|-----------------------------------------------------------|
Eb|-----------------------------------------------------------|

Gtr 1
eb|-------------------------------|-------------------------------|
Bb|-------------------------------|-------------------------------|
Gb|-----------------2-----2---2---|-----------------2-----2---2---|
Db|-2-------2-------0-----0---0---|-2-------2-------0-----0---0---|
Ab|-0---3---0---3-------3-------3-|-0---3---0---3-------3-------3-|
Eb|-------------------------------|-------------------------------|

Gtr 2
eb|-------------------------------|-------------------------------|
Bb|-----------------8-------------|-------------------------------|
Gb|-------------------9-----------|-------------------------------|
Db|-------------------------------|-------------------------------|
Ab|-------------------------------|-------------------------------|
Eb|-------------------------------|-------------------------------|

Gtr 1
eb|-------------------------------|-------------------------------|
Bb|-------------------------------|-------------------------------|
Gb|-----------------2-----2---2---|-----------------2-----2---2---|
Db|-2-------2-------0-----0---0---|-2-------2-------0-----0---0---|
Ab|-0---3---0---3-------3-------3-|-0---3---0---3-------3-------3-|
Eb|-------------------------------|-------------------------------|

Gtr 2
eb|-----------------10b11r------|-------------------------------|
Bb|-----------------10b11r------|------------------5/6----------|
Gb|------------------------9----|----------------------5--------|
Db|-----------------------------|-------------------------------|
Ab|-----------------------------|-------------------------------|
Eb|-----------------------------|-------------------------------|

Gtr 1
eb|---------------------------------|---------------------------------|
Bb|---------------------------------|---------------------------------|
Gb|---------5-----7-7-7-7-7-7-7-7-7-|---------5-----7-7-7-7-7-7-7-7-7-|
Db|-3-------5-----7-7-7-7-7-7-7-7-7-|-3-------5-----7-7-7-7-7-7-7-7-7-|
Ab|-3-------3-----5-5-5-5-5-5-5-5-5-|-3-------3-----5-5-5-5-5-5-5-5-5-|
Eb|-1-------------------------------|-1-------------------------------|

Gtr 2
eb|----------------------------------|-------------------------------|
Bb|-------------------------13b15r13-|-------------------------------|
Gb|----------------------------------|-------------------------------|
Db|----------------------------------|-------------------------------|
Ab|----------------------------------|-------------------------------|
Eb|----------------------------------|-------------------------------|

Gtr 1
eb|---------------------------------|---------------------------------|
Bb|---------------------------------|---------------------------------|
Gb|---------5-----7-7-7-7-7-7-7-7-7-|-7-9-9-9-9-9-9-9-9-9-9-9-9-9-9-9-|
Db|-3-------5-----7-7-7-7-7-7-7-7-7-|-7-9-9-9-9-9-9-9-9-9-9-9-9-9-9-9-|
Ab|-3-------3-----5-5-5-5-5-5-5-5-5-|-5-7-7-7-7-7-7-7-7-7-7-7-7-7-7-7-|
Eb|-1-------------------------------|---------------------------------|

Gtr 2
                                      Im not sure about the fill in
                                      the second bar but you can do this.
eb|----------------------------------|--------------------------------|
Bb|-------------------------13b15r13-|-1/------------10v--------------|
Gb|----------------------------------|--------------------------------|
Db|----------------------------------|--------------------------------|
Ab|----------------------------------|--------------------------------|
Eb|----------------------------------|--------------------------------|

  Chorus
Gtr 1
                G   D     A
Im laying pipe, all night long.

Gtr 2
eb|-----------------------------------|-----------------------------------|
Bb|-----------------------------------|-10v-------------------------------|
Gb|-----------------------------------|-----------------------------------|
Db|-----------------------------------|-----------------------------------|
Ab|-----------------------------------|-----------------------------------|
Eb|-----------------------------------|-----------------------------------|

Gtr 1
                   G       D    A
Im laying pipe, Im workin' so hard.

Gtr 2
eb|-----------------------------------|-----------------------------------|
Bb|-----------------------------------|-10v-------------------------------|
Gb|-----------------------------------|-----------------------------------|
Db|-----------------------------------|-----------------------------------|
Ab|-----------------------------------|-----------------------------------|
Eb|-----------------------------------|-----------------------------------|

Gtr 1
                G   D     A
Im laying pipe, all night long.

Gtr 2
eb|-----------------------------------|-----------------------------------|
Bb|-----------------------------------|-10v-------------------------------|
Gb|-----------------------------------|-----------------------------------|
Db|-----------------------------------|-----------------------------------|
Ab|-----------------------------------|-----------------------------------|
Eb|-----------------------------------|-----------------------------------|

Gtr 1
                G   D
Im laying pipe,        to satisfy that woman.

Gtr 2
eb|-----------------------------------|-----------------------------------|
Bb|-----------------------------------|-10v-------------------------------|
Gb|-----------------------------------|-----------------------------------|
Db|-----------------------------------|-----------------------------------|
Ab|-----------------------------------|-----------------------------------|
Eb|-----------------------------------|-----------------------------------|

I know its not that great but please rate and comment.





Comments


Popular David Wilcox tabs & chords
Do The Bearcat Bass Tabs
Advertising Man Chords
Bad Apple Chords
Cheap Beer Joint Chords
My Eyes Keep Me In Trouble Chords
Riverboat Fantasy Chords
Rusty Old American Dream Chords
Do The Bearcat Intro 1 Tabs
Eye Of The Hurricane Tabs
Riverboat Fantasy Tabs


Song lyrics



↑ Back to top | Tablatures and chords are parodies/interpretations of the original songs. You may use it for private study, scholarship, research or language learning purposes only
© 2014 AZChords.com Contact us | Privacy policy | DMCA | Add/correct tabs | Request tabs | Top 50 tabs