» » »

Do The Bearcat Bass tabs (ver.1)

Artists:  A B C D E F G H I J K L M N O P Q R S T U V W X Y Z # 

Do The Bearcat Bass tabs (ver.1)

David Wilcox
Rating:
0/5 (0 votes)

Hard to play? Try these video lessons and learn fast.
                -------------------------------------------------------------------------------
-------------------------------------------------------------------------------


The layout of this song is extremely easy to figure out and play.

Tuning: Standard

Bass starts when singing begins

MAIN RIFF:

G|---------------------------------------------------------------------------|
D|--------------7------------------------------------------------------------|
A|-0--04-5-6-7-9-------------------------------------------------------------|
E|---------------------------------------------------------------------------|

BREAKDOWN:

G|-----------------------------------------------------------------------------|
D|-----------------------------------------------------------------------------|
A|-12-11-9----9----------------------------------------------------------------|
E|--------------12-10----10-9-7------------------------------------------------|
|
|
| /  slide up
| \  slide down
| h  hammer-on
| p  pull-off
| ~  vibrato
| +  harmonic
| x  Mute note
===============================================================================
            
Hard to play? Try these video lessons and learn fast. | Correct




comments powered by Disqus
↑ Back to top | Tablatures and chords are parodies/interpretations of the original songs. You may use it for private study, scholarship, research or language learning purposes only