» » »

Dashboard Confessional, As Lovers Go Tabs (ver.1)

Artists:  A B C D E F G H I J K L M N O P Q R S T U V W X Y Z # 

As Lovers Go Tabs (ver.1)

Dashboard Confessional Tabs
Rating:
3/5 (7 votes)
As Lovers Go lessons Tabs too difficult? Try these video lessons and learn fast
                This is my first tab and it isnt the whole song, but i just liked this one guitar riff
DC.  It bugged me when i was trying to play this song off of a tab by another guy on this
and he said it was straight from the sheet music and when i looked at the sheet music it 
wrong.  Hope you guys enjoy this RIGHT piece of music.

Tuning is Eb Ab Db Gb Bb eb


         C                             Am
         She said, I've got - ta be hon - est  you're wast - ing your time
     eb:|------------------------------| |------------------------------|
     Bb:|-8-6----5---------------5-----| |-8-6----5---------------5-----|
     Gb:|----------------7-------------| |----------------7-------------|
     Db:|------------------------------| |------------------------------|
     Ab:|------------------------------| |------------------------------|
     Eb:|------------------------------| |------------------------------|


        F                               C
         if you're fish - in' round here
     eb:|------------------------------| |------5------------5----------|
     Bb:|-8-6----5---------------5-----| |--8------8------8-----8-------|
     Gb:|----------------7-------------| |-------------5------------5---|
     Db:|------------------------------| |------------------------------|
     Ab:|------------------------------| |------------------------------|
     Eb:|------------------------------| |------------------------------|


        C                                   Am
         And  I said, You must be mis -taken                  I'm  not
     eb:|------------------------------| |------------------------------|
     Bb:|-8-6----5---------------5-----| |-8-6----5---------------5-----|
     Gb:|----------------7-------------| |----------------7-------------|
     Db:|------------------------------| |------------------------------|
     Ab:|------------------------------| |------------------------------|
     Eb:|------------------------------| |------------------------------|


          F                                    C
fool  - in,               this feelin' is  real
     eb:|------------------------------| |----0--------------0----------|
     Bb:|-8-6----5---------------5-----| |-3-----3--------3-----3-------|
     Gb:|----------------7-------------| |-----------5--------------5---|
     Db:|------------------------------| |------------------------------|
     Ab:|------------------------------| |------------------------------|
     Eb:|------------------------------| |------------------------------|

         C                                  Am
              She Said You've Got-ta Be Crazy                  What do you
     eb:|------------------------------| |------------------------------|
     Bb:|-8-6----5---------------5-----| |-8-6----5---------------5-----|
     Gb:|----------------7-------------| |----------------7-------------|
     Db:|------------------------------| |------------------------------|
     Ab:|------------------------------| |------------------------------|
     Eb:|------------------------------| |------------------------------|

    F                                        C
take me for                Some  Kind  of  E     -     asy      Mark
     eb:|------------------------------| |------5------------5----------|
     Bb:|-8-6----5---------------5-----| |--8------8------8-----8-------|
     Gb:|----------------7-------------| |-------------5------------5---|
     Db:|------------------------------| |------------------------------|
     Ab:|------------------------------| |------------------------------|
     Eb:|------------------------------| |------------------------------|

        C                                     Am
             You've got wits, you've got looks, you've got passion
     eb:|------------------------------| |------------------------------|
     Bb:|-8-6----5---------------5-----| |-8-6----5---------------5-----|
     Gb:|----------------7-------------| |----------------7-------------|
     Db:|------------------------------| |------------------------------|
     Ab:|------------------------------| |------------------------------|
     Eb:|------------------------------| |------------------------------|

          F                             C
But i swear that you've got me all wrong
     eb:|------------------------------| |------------------------------|
     Bb:|-8-6----5---------------5-----| |-8\10\8--------8\10\8---------|
     Gb:|----------------7-------------| |-7\9\7---------7\9\7----------|
     Db:|------------------------------| |------------------------------|
     Ab:|------------------------------| |------------------------------|
     Eb:|------------------------------| |------------------------------|

Thats all i got so far.  send me a comment if i messed up or if i missed a note.  I
appreciate it a lot.
Thanks and enjoy!!!
P.S. - DETAILS DETAILS DETAILS!!!
            

comments powered by Disqus
↑ Back to top | Dashboard Confessional Tabs for As Lovers Go. Lyrics for acoustic guitar and electric guitar. Tablatures and chords are parodies/interpretations of the original songs. You may use it for private study, scholarship, research or language learning purposes only