>
 >
As Lovers Go Intro

As Lovers Go Intro Guitar Tabs

Dashboard Confessional - As Lovers Go Intro chords, tabs, tablatures, lyrics

Guitar lessons | Add/correct | Request | Top 50 tabs Artists:  A B C D E F G H I J K L M N O P Q R S T U V W X Y Z 0-9

As Lovers Go Intro Guitar Tabs – Dashboard Confessional

CD, Sheet music, Poster

Do you like As Lovers Go Intro? Share with your friends now
Tabs
Standard Tuning: Half Step Down
(low to high) Eb-Ab-Db-Gb-Bb-Eb

This is my first tabulature. Since I'm a huge DC fan, I've been playing alot of their
music. I've bought every piece of their avialable sheet music and for whatever songs
that are not available, I depend on this site. Any song that I tab on here WILL BE
STRAIT FROM THE STUDIO SHEET MUSIC transcribed the best I can.

I did not purchase As Lovers Go yet but did get the 1st page to review for promotional
purposes, so here it is, hope you like:


[CHORDS USED IN SONG] (#fr means fret position)
**If all 6 strings are numbered, it's easily played by
making it a bar chord.


                      5fr      5fr   5fr
     C     Am    F    Fmaj7    C/F   Amv
Eb:|-0-----0-----1-----X--------X-----1----|
Bb:|-1-----1-----1-----1--------1-----1----|
Gb:|-0-----3-----2-----1--------1-----1----|
Db:|-2-----2-----4-----3--------1-----4----|
Ab:|-3-----0-----3-----4--------4-----3----|
Eb:|-X-----X-----1-----X--------X-----1----|


           4fr   5fr   6fr            7fr
    Am7    D7    D5    Bb    Cadd2/B  G
Eb:|-1-----X-----X-----1-------0------X----|
Bb:|-1-----X-----X-----1-------1------X----|
Gb:|-1-----3-----4-----2-------0------1----|
Db:|-1-----1-----3-----4-------0------3----|
Ab:|-3-----2-----1-----3-------2------4----|
Eb:|-1-----X-----X-----1-------X------X----|


     open  3fr   4fr     7fr   7fr   9fr
     Am7   G     D5/C#   E5   Gmaj7   A
Eb:|-0-----1------X------X------X-----X----|
Bb:|-1-----1------X------X------1-----X----|
Gb:|-0-----2------4------4------1-----1----|
Db:|-2-----4------3------3------3-----3----|
Ab:|-0-----3------1------1------4-----4----|
Eb:|-X-----1------X------X------X-----X----|


          8fr   5fr      
     B5    C     A     D
Eb:|-X-----1-----1-----2---|
Bb:|-X-----1-----1-----3---|
Gb:|-4-----2-----2-----1---|
Db:|-3-----4-----4-----0---|
Ab:|-1-----3-----3-----X---|
Eb:|-X-----1-----1-----X---|



[CHORD]:  C                               Am    
[Lyrics]:She said, I've got - ta be hon - est  you're wast - ing your time
     Eb:|------------------------------| |--------------------------------|
     Bb:|-----6---5--------------5-----| |----6--5------------5-----------|
     Gb:|-5-----------7----------------| |-5------------------------------|
     Db:|------------------------------| |----------7---------------------|
     Ab:|------------------------------| |--------------------------------|
     Eb:|------------------------------| |--------------------------------|


[CHORD]:  F                            C      
[Lyrics]:if you're fish - in' round here   And  I said, You must be mis -tak
     Eb:|------------------------------| |--------------------------------|
     Bb:|-----6---5--------------5-----| |----6--5------------5-----------|
     Gb:|-5-----------7----------------| |-5------------------------------|
     Db:|------------------------------| |----------7---------------------|
     Ab:|------------------------------| |--------------------------------|
     Eb:|------------------------------| |--------------------------------|


[CHORD]:  Am                      F                           C      
[Lyrics]:en     I'm  not  fool  - in,  this feel  - in' is  real
     Eb:|------------------------------| |--------------------------------|
     Bb:|-----6---5--------------5-----| |----6--5------------5-----------|
     Gb:|-5-----------7----------------| |-5------------------------------|
     Db:|------------------------------| |----------7---------------------|
     Ab:|------------------------------| |--------------------------------|
     Eb:|------------------------------| |--------------------------------|


play this in between fishing around here / And I said

     Eb:|------5------------5----------| 
     Bb:|--8------8------8-----8-------| 
     Gb:|-------------5------------5---| 
     Db:|------------------------------| 
     Ab:|------------------------------| 
     Eb:|------------------------------| 

This part is played after "this feeling is real"

     Eb:|----0--------------0----------| 
     Bb:|-3-----3--------3-----3-------| 
     Gb:|-----------5--------------5---| 
     Db:|------------------------------| 
     Ab:|------------------------------| 
     Eb:|------------------------------| 



****Well, that's a start, the tabs don't line up but are the correct tabs for each bar
chorus. Hope this helps somewhat for now. ****





Comments


Popular Dashboard Confessional tabs & chords
Belle Of The Boulevard 3 Chords
Dont Wait 2 Chords
Keep Watch For The Mines Chords
Rooftops And Invitations Chords
Tonight Ill Take What I Can Get Chords
Vindicated Chords
Again I Go Unnoticed 2 Tabs
This Old Wound 2 Tabs
Age Six Racer Ukulele
No News Is Bad News Ukulele


Song lyrics



↑ Back to top | Tablatures and chords are parodies/interpretations of the original songs. You may use it for private study, scholarship, research or language learning purposes only
© 2014 AZChords.com Contact us | Privacy policy | DMCA | Add/correct tabs | Request tabs | Top 50 tabs