>
 >
Age Six Racer 1

Age Six Racer 1 Guitar Tabs

Dashboard Confessional - Age Six Racer 1 chords, tabs, tablatures, lyrics

Guitar lessons | Add/correct | Request | Top 50 tabs Artists:  A B C D E F G H I J K L M N O P Q R S T U V W X Y Z 0-9

Age Six Racer 1 Guitar Tabs – Dashboard Confessional

CD, Sheet music, Poster

Do you like Age Six Racer 1? Share with your friends now
ChordsTabsTabs v2Tabs v3Tabs v4Tabs v5Ukulele
Dashboard Confessional – Age Six Racer

- I know, I know... there are a lot of tabs on this one already. But, all of them are
in a dropped tuning (which is the original way playing it, mind you), which I find is
really unnecessary. So, here’s my version
 Although I could have sent this much earlier (like 3 years earlier/2003),
I only started tabbing recently.

- I was also planning to send my tabs of Hands Down and Saints and Sailors, but I saw
that the tabs sent on those songs were already great! It was just this one that really
ticked me! ^_^

- Well, enjoy!

Standard Tuning: EADGBe

Intro: 00:00 – 00:11.
======
e|-4-------------------------------------------------------------------|
B|---------------------------------------------------------------------|
G|---3-5-6-5/2---------------------------------------------------------|
D|-----------------6---------------------------------------------------|
A|-------------4-----4----------4--------------------------------------|
E|---------------6-----6--1-4-4---1-4/6-6/4-2~~------------------------|
Do this twice.

Verse:
======
   00:12
e|---------------------------------------------------------------------|
B|-6--6-6--6-6--x-x-x-x--4--4-4--4-4--x-x-x-x--2--2-2--2-2--x-x-x-x----|
G|-6--6-6--6-6--x-x-x-x--5--5-5--5-5--x-x-x-x--3--3-3--3-3--x-x-x-x----|
D|-6--6-6--6-6--x-x-x-x--6--6-6--6-6--x-x-x-x--3--3-3--3-3--x-x-x-x----|
A|-4--4-4--4-4--x-x-x-x--6--6-6--6-6--x-x-x-x--1--1-1--1-1--x-x-x-x----|
E|-----------------------4--4-4--4-4-----------------------------------|
   C#			 G#		       A#m

e|---------------------------------------------------------------------|
B|-2--2-2--2-2--x-x-x-x------------------------------------------------|
G|-3--3-3--3-3--x-x-x-x------------------------------------------------|
D|-4--4-4--4-4--x-x-x-x------------------------------------------------|
A|-4--4-4--4-4--x-x-x-x------------------------------------------------|
E|-2--2-2--2-2--x-x-x-x------------------------------------------------|
   F#

   00:19
e|---------------------------------------------------------------------|
B|-6--6-6--6-6--x-x-x-x--4--4-4--4-4--x-x-x-x--2--2-2--2-2--x-x-x-x----|
G|-6--6-6--6-6--x-x-x-x--5--5-5--5-5--x-x-x-x--3--3-3--3-3--x-x-x-x----|
D|-6--6-6--6-6--x-x-x-x--6--6-6--6-6--x-x-x-x--3--3-3--3-3--x-x-x-x----|
A|-4--4-4--4-4--x-x-x-x--6--6-6--6-6--x-x-x-x--1--1-1--1-1--x-x-x-x----|
E|-----------------------4--4-4--4-4-----------------------------------|

					00:25
e|--------------------------------------|
B|-2--2-2--2-2--2-2-2-2--6x-x-x-x-x-x-x-|
G|-3--3-3--3-3--3-3-3-3--6x-x-x-x-x-x-x-|
D|-4--4-4--4-4--4-4-4-4--6x-x-x-x-x-x-x-|
A|-4--4-4--4-4--4-4-4-4--4x-x-x-x-x-x-x-|
E|-2--2-2--2-2--2-2-2-2-----------------|

e|-----------------------------------------------|
B|-4--4-4--4-4--x-x-x-x--2--2-2--2-2--x-x-x-x----|
G|-5--5-5--5-5--x-x-x-x--3--3-3--3-3--x-x-x-x----|
D|-6--6-6--6-6--x-x-x-x--3--3-3--3-3--x-x-x-x----|
A|-6--6-6--6-6--x-x-x-x--1--1-1--1-1--x-x-x-x----|
E|-4--4-4--4-4-----------------------------------|

e|---------------------------------------------------------------------|
B|-2--2-2--2-2--x-x-x-x------------------------------------------------|
G|-3--3-3--3-3--x-x-x-x------------------------------------------------|
D|-4--4-4--4-4--x-x-x-x------------------------------------------------|
A|-4--4-4--4-4--x-x-x-x------------------------------------------------|
E|-2--2-2--2-2--x-x-x-x------------------------------------------------|

   00:31
e|---------------------------------------------------------------------|
B|-6--6-6--6-6--x-x-x-x--4--4-4--4-4--x-x-x-x--2--2-2--2-2--x-x-x-x----|
G|-6--6-6--6-6--x-x-x-x--5--5-5--5-5--x-x-x-x--3--3-3--3-3--x-x-x-x----|
D|-6--6-6--6-6--x-x-x-x--6--6-6--6-6--x-x-x-x--3--3-3--3-3--x-x-x-x----|
A|-4--4-4--4-4--x-x-x-x--6--6-6--6-6--x-x-x-x--1--1-1--1-1--x-x-x-x----|
E|-----------------------4--4-4--4-4-----------------------------------|

e|---------------------------------------------------------------------|
B|-2--2-2--2-2--2--2---------------------------------------------------|
G|-3--3-3--3-3--3--3---------------------------------------------------|
D|-4--4-4--4-4--4--4---------------------------------------------------|
A|-4--4-4--4-4--4--4---------------------------------------------------|
E|-2--2-2--2-2--2--2---------------------------------------------------|

Chorus: 00:37 – 01:02.
=======
e|-------------------------------------4-----2-------------------------|
B|-6-----6-----------6-----------6-------4-----2-----------------------|
G|---6-----6-------6---6-------6---6-----------------------------------|
D|-----6-----6---6-------6---6-------6-----6-----4---------------------|
A|-------------4-----------4-------------------------------------------|
E|---------------------------------------------------------------------|
   C#				       G#    F#
Do this four times.

Verse: 01:03 – 01:28.
======
Repeat.

Intro: 01:28 – 01:40.
======
Repeat.

Outro: 01:41 – 02:14.
======
e|---------------------------------------------------------------------|
B|---------------------------------------------------------------------|
G|---------------------------------------------------------------------|
D|-6--6-6-6-6-4/6-6/8-8/4-4--4-4--4-4--4-4-4-4-------------------------|
A|-6--6-6-6-6-4/6-6/8-8/4-4--4-4--4-4--4-4-4-4-------------------------|
E|-4--4-4-4-4-2/4-4/6-6/2-2--2-2--2-2--2-2-2-2-------------------------|
   G#         F#    A#
Do seven times.

e|---------------------------------------------------------------------|
B|---------------------------------------------------------------------|
G|---------------------------------------------------------------------|
D|-6--6-6-6-6-4/6-6/8-8/4-4--4-4--4-4--4--4----------------------------|
A|-6--6-6-6-6-4/6-6/8-8/4-4--4-4--4-4--4--4----------------------------|
E|-4--4-4-4-4-2/4-4/6-6/2-2--2-2--2-2--2--2----------------------------|

e|-4-------------------------------------------------------------------|
B|---------------------------------------------------------------------|
G|---3-5-6-5/2---------------------------------------------------------|
D|-----------------6---------------------------------------------------|
A|-------------4-----4----------4--------------------------------------|
E|---------------6-----6--1-4-4---1-4/6-6/4-2~~------------------------|





Comments


Popular Dashboard Confessional tabs & chords
Dont Wait 4 Chords
Matters Of Blood And Connection Chords
Secrets In The Telling Chords
So Long Sweet Summer Chords
Swiss Army Romance 2 Chords
The Shade Of Poison Trees 1 Chords
Living In Your Letters 1 Tabs
What I Wanted To Say Was Tabs
Living In Your Letters Ukulele
No News Is Bad News Ukulele


Song lyrics



↑ Back to top | Tablatures and chords are parodies/interpretations of the original songs. You may use it for private study, scholarship, research or language learning purposes only
© 2014 AZChords.com Contact us | Privacy policy | DMCA | Add/correct tabs | Request tabs | Top 50 tabs