» » »

Age Six Racer Tabs (ver.1)

Artists:  A B C D E F G H I J K L M N O P Q R S T U V W X Y Z # 

Age Six Racer Tabs (ver.1)

Dashboard Confessional
Rating:
4/5 (6 votes)

Hard to play? Try these video lessons and learn fast.
                
I worked out the version Chris plays on the 'A mark, a mission, a brand, a scar'
very close, but I just feel this is how it's actually played.  Lyrics are right
at the bottom underneath the live version if you need them.

Eb tuning

|-5-------------------------------------|
|---0-----------------------------------|
|-----6-7-6/2-----2---------------------|
|-------------0-----0-------------------|
|---------------2-----2-------5---------|
|-----------------------2-5-5---2-5/7-3-|

|-2-----0-----2-----3-----|--2------0-----2-----3-----|-2-----0----2----3-----|
|-3-----2-----3-----3-----|--3------2-----3-----3-----|-3-----2----3----3-----|
|-2-----2-----4-----0-----|--2--2---2-----4-----0-----|-2-----2----4----0-----|
|-0-----2-----4-----0-----|--0--0---2-----4-----0-----|-0-----2----4----0-----|
|-------0-----2-----2-----|---------0-----2-----2-----|-------0----2----2-----|
|-------------------3-----|---------------------3-----|-----------------3-----|
  D     A     Bm    G  x2    D  D5  A     Bm    G  x1    D    A    Bm   G  x1

|-2-----2------------0------------2------5-----3------|
|---3-----3----2-------2----3-------3------0-----0----|
|-----2-----2------2-----2------4-----4------0-----0--|
|-0--------------2------------4-----------------------|
|--------------0------------2-------------------------|
|----------------------------------------3------------|

|-2-----0-----2-----3-----|--2------0-----2-----3-----|-2-----0----2----3-----|
|-3-----2-----3-----3-----|--3------2-----3-----3-----|-3-----2----3----3-----|
|-2-----2-----4-----0-----|--2--2---2-----4-----0-----|-2-----2----4----0-----|
|-0-----2-----4-----0-----|--0--0---2-----4-----0-----|-0-----2----4----0-----|
|-------0-----2-----2-----|---------0-----2-----2-----|-------0----2----2-----|
|-------------------3-----|---------------------3-----|-----------------3-----|
                       x2                          x1                      x1

|-5-------------------------------------|
|---0-----------------------------------|
|-----6-7-6/2-----2---------------------|
|-------------0-----0-------------------|
|---------------2-----2-------5---------|
|-----------------------2-5-5---2-5/7-3-|

|-----------------|
|-----------------|
|-----------------|
|-----------4-----|
|-7----4----2--5--|
|-5----2-------3--|

|-5--------------------------------------|
|---0------------------------------------|
|-----6-7-6/2-2---2----------------------|
|-------------0-----0----------------(0)-|
|---------------2-----2-------5-------x--|
|-----------------------2-5-5---2-5/7-3--|

There's a couple of extra notes on the outro to the version on 'Swiss Army Romance' that
people do not notice, so you have to listen quite carefully to hear them.  The open D
string on the last part is optional as it sounds as though it could be there, but not at
the same time.

_ _ _ _ _ _ _ _ _ _ _ _ _ _ _ _ _ _ _ _ _ _ _ _ _ _ _ _ _ _ _ _

Live (A Mark, a mission.... bonus dvd)

|-5-------------------------------------|
|---0-----------------------------------|
|-----6-7-6/2-----2---------------------|
|-------------0-----0-------------------|
|---------------2-----2-------5---------|
|-----------------------2-5-5---2-5/7-3-|

|-2------0------0------3--|
|-3------0------0------0--|
|-2------2------2------0--|
|-0------2------0------0--|
|--------0------2------2--|
|---------------0------3--|
 Played through the picking part as well

|-5-------------------------------------|
|---0-----------------------------------|
|-----6-7-6/2-----2---------------------|
|-------------0-----0-------------------|
|---------------2-----2-------5---------|
|-----------------------2-5-5---2-5/7-3-|

|-----------------|
|-----------------|
|-----------------|
|-----------------|
|-7----4----9--5--|
|-5----2----7--3--|

|-5-------------------------------------|
|---0-----------------------------------|
|-----6-7-6/2-----2---------------------|
|-------------0-----0-------------------|
|---------------2-----2-------5---------|
|-----------------------2-5-5---2-5/7-3-|

_________________
Lyrics:

So long sweet summer,
I stumbled upon you and greatfully basked in your rays.
So long sweet slumber.
I fell into you now you're gracefully falling away.

Hey thanks, thanks for that summer.
It is cold where your going
I hope that your heart is always warm.
I gave you the best,i gave you the best that I had.
You pased on the letters
& passed on the best that I had.

So long sweet summer,
I stumbled upon you and greatfully basked in your rays.
So long sweet slumber.
I fell into you now you're gracefully falling away.

I hate the winter in Lexington
            
Hard to play? Try these video lessons and learn fast. | Correct




comments powered by Disqus
↑ Back to top | Tablatures and chords are parodies/interpretations of the original songs. You may use it for private study, scholarship, research or language learning purposes only