» » »

Darlene Zschech, Shout To The Lord Chords (ver.1)

Artists:  A B C D E F G H I J K L M N O P Q R S T U V W X Y Z # 

Shout To The Lord Chords (ver.1)

Darlene Zschech Tabs
 Rating:
3.3/5 (6 votes)
Shout To The Lord lessons Tabs too difficult? Try these video lessons and learn fast
                INTRO

E--------------------------------------|
B------2--3--5-------------------------|
G-------------------------1---2---4----|
D----2---------------------------------|   x2
A--0-----------------2-----------------|
E-----------------0--------------------|

[A]     [E]           [F#m]          [E]       [D]
My Jesus, my saviour, Lord there is none like you
          [A]   [D]        [A]         [F#m]         
 [D]  [E]
All of my days, i have to praise, the wonders of your mighty love
[A]       [E]           [F#m]       [E]       [D]
My comfort, my shelter, tower of refuge and strength
           [A]   [D]        [A]  [F#m]           
[D] [E]
Let every breath, all that I am, never cease to worship you


[A]           [F#m}        [D]          [E]
Shout to the Lord all the earth let us sing
[A]        [F#m]    [D]          [E]
Power and majest praise to the king
[F#m]                       [D]                   [E]         
[E]
Mountains bow down and the seas will roar at the sound of your name
[A]         [F#m]       [D]           [E]
I sing for joy at the work of your hands
[A]          [F#m]          [D]        [E]
Forever i'll love you, forever i'll stand
[F#m]                     [D]       [E]
Nothing compares to the promise I have in you


E--0-------------0------------0-------------0-----------|
B--2---3---5-----0------------2---3---5-----0-----------|
G--2-------------1---2---4----2-------------1---2---4---|
D--2-------------2------------2-------------2-----------|
A--0-------------2------------0-------------2-----------|
E--0-------------0------------0-------------0-----------|

Repeat

Finish on [A]
            
Submit corrections

comments powered by Disqus
↑ Back to top | Darlene Zschech Chords for Shout To The Lord. Lyrics for acoustic guitar and electric guitar. Tablatures and chords are parodies/interpretations of the original songs. You may use it for private study, scholarship, research or language learning purposes only