>
 >
Shout To The Lord

Shout To The Lord Guitar Tabs

Darlene Zschech - Shout To The Lord chords, tabs, tablatures, lyrics

Guitar lessons | Add/correct | Request | Top 50 tabs Artists:  A B C D E F G H I J K L M N O P Q R S T U V W X Y Z 0-9

Shout To The Lord Guitar Tabs – Darlene Zschech

CD, Sheet music, Poster

Do you like Shout To The Lord? Share with your friends now
Bass TabsChordsChords v2TabsUkulele
-----------------------------------------------------------------
Shout to The Lord  Darlene Zschech (Arranged by Talinor)
-----------------------------------------------------------------
Tuning: Standard
Capo: 3rd fret

This is a fingerstyle/strum-style acoustic arrangement of 'Shout to The Lord',
originally written by Darlene Zschech. For reference, you can check out a video of this
this mostly right, though there may be a typo or two lying around. Anywho, enjoy. :)


VERSE
   G                                 D
E|-3-------------------------------|-2-------------------------------|
B|-3-------0-------1-------3-------|-3-------------------------------|
G|-0---0-----0-------0-------0-----|-2---2-----------0-------2-------|
D|-0-----0-----0-------0-------0---|-0-----0-4---4-----0---0---0---0-|
A|-2-------------------------------|-0---------0---0-----0-------0---|
E|-3-------------3-------3-------3-|---------------------------------|

   Em          D               C
E|-3---3---3---2---------------0---|-----0---0-----0-3---2---0h2p0---|
B|-3-----------3-------3---0---x---|-------------------------------3-|
G|-0-----------2---------------0---|-----0---0-----0-----------------|
D|-2-----------0---------------2---|---------------------------------|
A|-2-----------0---------------3---|---------------------------------|
E|-0-------------------------------|---------------------------------|
                                     1.______________________________
   G           Cadd9                |G           Cadd9
E|-----------------3---2---0-------|---------------------------------|
B|-------3-----3---3---3---3---3---|-------3-----3---3---1---0-------|
G|-0-----0-----0---------------0---|-0-----0-----0---0---0---0---0---|
D|-0-----0-----2-------------------|-0-----0-----2-------------------|
A|-2-----------3-------------------|-2-----------3---------------3---|
E|-3-------------------------------|-3-------------------------------|
_____________________________________________________________________
   Am              Cadd6             D                               |
E|---------------------------------|---------------------------------|
B|-1-----1---1-1-1-1-----1---1-1-1-|-3-----3-----3-----3-----3-1-0--o|
G|-2-----2---2-2-2-2-----2---2-2-2-|-2-----2-----2-----2-----2-2-2---|
D|-2-----2---2-2-2-2-----2---2-2-2-|-0-----0-----0-----0-----0-0-0---|
A|-0-----0---0-0-0-3-----3---3-3-3-|-0-----0-----0-----0------------o|
E|---------------------------------|---------------------------------|
  2._______________________________
  |G           Cadd9                 Am7             Am7/C
E|-----------------3---3---0---3---|-------5---5-----------5---5-----|
B|-------3-----3---3---3---3---3---|-------5---5-----------5---5-----|
G|-0-----0-----0-------------------|-------5---5-----------5---5-----|
D|-0-----0-----2-------------------|-5-------------------------------|
A|-2-----------3-------------------|-0-------------------------------|
E|-3-------------------------------|-----------------8---------------|

                                    CHORUS
   Dadd5                             G               Dsus4   D   Dsus4
E|-------5-----5-----5---5-5-5-5-5-|-3---3---2---3-------3---2---3---|
B|-------3-----3-----3---3-3-3-3-3-|o3---3---3---3-------3---3---3---|
G|-------2-----2-----2---2-2-2-2-2-|-0---0---0---0---2---2---2---2---|
D|-0-----------0-----0---0-0-0-0-0-|-0---0---0---0---0---0---0---0---|
A|-0-------------------------------|ox---------------0---------------|
E|---------------------------------|-3-------------------------------|

   Cadd9                   D         G               Dsus4
E|-----3---2---0-----0-----2---2-2-|-3---3---2---3-------3---5-------|
B|-----3---3---3-----3-----3---3-3-|-3---3---3---3-------3---x-------|
G|-0---0---0---0-----0-0---2---2-2-|-0---0---0---0---2---2---x-------|
D|-x-------------------x---0-------|-0---0---0---0---0---0---0-------|
A|-3-------------------3---0-------|-x---------------0---------------|
E|---------------------------------|-3-------------------------------|
  1._________________________________________________________________
  |Am7               Dadd5           Em7
E|-7---5-------5-----------5-------|-3---3---2---3-------3---2---3---|
B|-5---5---8---5-----------3-------|-0---0---0---0-------0---0---0---|
G|-5---5---5---5-----2-2---2-------|-0---0---0---0-------0---0---0---|
D|-5---5---5---5-----0-0---0-------|-0---0---0---0---0---0---0---0---|
A|-0-----------------0-0---0-------|-2---------------2---------------|
E|---------------------------------|-0---------------0---------------|
  ___________________________________________________________________
   C                                 D Dadd2
E|-----3---2---0-----0-----0---0---|-2-0-------------0-------0-------|
B|-----0---0---0-----0-----0---0---|-3-3-3---3---3-3-3---3---3---3-3-|
G|-0---0---0---0-----0-0---0---0---|-2-2-2---2---2-2-x---x---x---x-x-|
D|-x-------------------0-----------|-0-0-0---0---0-0-2---2---2---2-2-|
A|-3-------------------3-----------|-0---------------0---0-----------|
E|---------------------------------|---------------------------------|
  ________________________________   2.______________________________
   D                 Dadd5        | |Am7         Dadd5
E|-2-------2---2-2---5-----5---5-5-|-7--5h7p5----5-----5-----5---5-5-|
B|-3-------3---3-3---3-----3---3-3o|-5--5----8---3-----3-3---3---3-3-|
G|-x-------x---x-x-2-2-2---2---2-2-|-5--5----5---2-----2-2---2---2-2-|
D|-4---4---4---4-4-0---0---0---0-0-|-5-------5---0-----0-0---0---0-0-|
A|-0---0---0-------0-------0------o|-0-----------0-----0-0---0---0-0-|
E|---------------------------------|---------------------------------|

   Em7                               C                       D
E|-3---3---2---3-------3---2---3---|-----3---2---0-----0-----2-------|
B|-0---0---0---0-------0---0---0---|-----0---0---0-----0-----3-------|
G|-0---0---0---0-------0---0---0---|-0---0---0---0-----0-0---2-------|
D|-0---0---0---0---0---0---0---0---|-x-------------------0---0-------|
A|-2---------------2---------------|-3-------------------3---0-------|
E|-0---------------0---------------|---------------------------------|

   Em7                               C                       D
E|-3---3---2---3-------3---2---3---|-----3---2---0-----0-----2-2-2-2-|
B|-3---3---3---3-------3---3---3---|-----0---0---0-----0-----3-3-3-3-|
G|-0---0---0---0-------0---0---0---|-0---0---0---0-----0-0---2-2-2-2-|
D|-0---0---0---0---0---0---0---0---|-x-------------------0---0-0-0-0-|
A|-2---------------2---------------|-3-------------------3---0-0-0-0-|
E|-0---------------0---------------|---------------------------------|

   Em7             Dsus4             C               D
E|-3---3---2---3-------3---2---3---|-----3---2---0-----------2-------|
B|-3---3---3---3-------3---3---3---|-----0---0---0---3-3-----3-------|
G|-0---0---0---0---2---2---2---2---|-0---0---0---0---2-2-2---2---2---|
D|-0---0---0---0---0---0---0---0---|-x-------x-------0-0-0---0---0---|
A|-2-------0-------0-------0-------|-3-------3-------0---0---0---0---|
E|-0-------------------------------|---------------------------------|

   Em7             Dsus4             C               D
E|-3---3---5---3-------3---5---5/7-|-----5---0h5p0-5-5-------2-------|
B|-0---0---0---0-------x---x---0---|-----0---0-----0-3-------3-------|
G|-0---0---0---0---2---2---2---x---|-0---0---0-----0-2-------2-------|
D|-0---0---0---0---0---0---0---0---|-x---------------0-------0-------|
A|-2---2---2---2---0---------------|-3---------------0-------0-------|
E|-0-------------------------------|---------------------------------|

   Em7             D                 Cadd9         D
E|-3-----------2-----------2h3-2---|-3-----------0h2---------3/5-----|
B|-----3-------------------3-------|-----3---------------------------|
G|---------0-----------2-----------|---------0-----------------------|
D|-----------------0---------------|-------------0-------------------|
A|---------------------------------|-3-------------------------------|
E|-0-------------------------------|---------------------------------|

   G                                 D
E|-3-------------------------------|-2-------------------------------|
B|---------0-------1-------0-------|-----3---------------------------|
G|-----0-----0---0---0---0---0---0-|-------2---------0-------2-------|
D|-------0-----0-------0-------0---|---------4---4-----0---0---0---0-|
A|---------------------------------|-0---------0---0-----0-------0---|
E|-3-------------------------------|---------------------------------|

   G
E|-3-------------------------------|
B|-3-------------------------------|
G|-0-------------------------------|
D|-0-------------------------------|
A|-2-------------------------------|
E|-3-------------------------------|


Tablature Notation

h - hammer on
p - pull off
/ - slide up
\ - slide down
x  mute note





Comments


Popular Darlene Zschech tabs & chords
Air I Breathe Chords
It Is You Chords
One Way Chords
Praise His Holy Name Chords
Victors Crown Chords
Victors Crown 2 Chords
Worthy Is The Lamb 1 Chords
Deeply In Love Ukulele
In Jesus Name Ukulele
One Way Ukulele


Song lyrics



↑ Back to top | Tablatures and chords are parodies/interpretations of the original songs. You may use it for private study, scholarship, research or language learning purposes only
© 2014 AZChords.com Contact us | Privacy policy | DMCA | Add/correct tabs | Request tabs | Top 50 tabs