>
 >
Everything About You

Everything About You Guitar Tabs

Darlene Zschech - Everything About You chords, tabs, tablatures, lyrics

Guitar lessons | Add/correct | Request | Top 50 tabs Artists:  A B C D E F G H I J K L M N O P Q R S T U V W X Y Z 0-9

Everything About You Guitar Tabs – Darlene Zschech

CD, Sheet music, Poster

Do you like Everything About You? Share with your friends now
Tabs
EVERYTHING ABOUT YOU
INTRO: 
KEY OF C


   C       G        Am        F

e--3-------3--------5---------1-------|
B-----5----3--------5---------1-------|
G-----5------4------------------2-----|
D-----5--------5--------7---------3---|
A--3-----------5--------7---------3---|
E--x-------3--------5---------1-------|


   C       G        Am          F

e--8---------3--------5---------1-------|
B--8---------3--------5---------1-------|
G----9---------4------------------2-----|
D------10--------5--------7---------3---|
A------10--------5--------7---------3---|
E--8---------3--------5---------1-------|


I.
    C		  G
     You chase me, I caught you
    Am		  F
     So glad we found each other
    C	         G
     We whispered forever
    Am		   F
     To share our lives together
    G		   F
     To watch our dreams unfold

Chorus:
	 C	 G	    F
     And I love everything about you
     Fm		    Am
     Everything you are
	     G	             F         G
     You’ve catch a falling star if I ask you
	 C		    G		  F
     And I couldn’t live a single day without you
	  Fm	          Am
     You hold me in your arms
	  G		F
     And once again I know
		   G	        C   G
     That I’m the only one for you

II.
    C		  G
     The way you laugh
	          Am
     The way we dance
		  F	   C
     The way you hold my hands
                  G
     The way you give
		  Am
     The way you kiss
		  F       G
     The way you look at me
	             F
     You make life beautiful

Chorus:
	 C	 G	     F
     Oh! I love everything about you
     Fm		    Am
     Everything you are
	      G	             F	       G
     You’ve catch a falling star if I ask you
	 C	             G	          F
     And I couldn’t live a single day without you
	  Fm		  Am
     You hold me in your arms
	  G	        F
     And once again I know
	           G		 C
     That I’m the only one for you

Bridge:
         D#
     Oh! I love the light
            A#
     That shines in your eyes
	       G#	      A#
     When you talk about our girls and love
	 Cm
     The way you smile
	        A#          G#
     When they walk into a room
	    Cm			     A#
     Oh! I love how you care about brokenness
	    G#			A#
     How injustice moves your heart enough
	 Cm
     To make a change
	  A#		   G#	    A#
     You give all you are everyday

Sequence:

	V – I		Bridge

	Chorus		Adlib

	V – II		Chorus
					    C
	Chorus		Ending: You’re the love of my life
				G           F        G - Am
			        So glad I found you, yeah!

Adlib:

e-----------------10-12-12-10--10--------------------|
B---------10-12h13-----------13-----10---------10----|
G--9-10-12-----------------------12-----9h10-12--9---|
D----------------------------------------------------|
A----------------------------------------------------|
E----------------------------------------------------|


e----------------------------------------------------|
B--10* -10-12-10-9-----------------------------------|
G----------------12-10h9-------9h10h9---------9h10h9-|
D------------------------10-12-------10-10-12--------|
A----------------------------------------------------|
E----------------------------------------------------|


|--------------------------------------------|
|--------------------------------------------|
|--------------------------------------------|
|---9h10-12-12------7-9h10h9-----------------|
|--------------8-10----------10-8h7-8h7-5-3--|
|--------------------------------------------|





Comments


Popular Darlene Zschech tabs & chords
Air I Breathe Chords
Best For Me Chords
El Poder De Tu Amor Chords
God Is Here Chords
Shout To The Lord 3 Chords
Victors Crown 1 Chords
Victors Crown 2 Chords
Deeply In Love Tabs
El Poder De Tu Amor Ukulele
Know You More Ukulele


Song lyrics



↑ Back to top | Tablatures and chords are parodies/interpretations of the original songs. You may use it for private study, scholarship, research or language learning purposes only
© 2014 AZChords.com Contact us | Privacy policy | DMCA | Add/correct tabs | Request tabs | Top 50 tabs